rock
 
|tablatures   |lyrics   |discussion forums   |more tabs @ XGuitar.com

Pink Floyd tabs

Vera bass tab

Song: Vera
Artist: Pink Floyd
Album: The Wall

"Does anybody here..."
 [0:25]
  w          w          W.              Q  Q  W          W
|----------|----------|---------------|----------------|----------|
|----------|----------|-2-------------|-2--0-----------|----------|
|----------|-5--------|---------------|-------3--------|-5--------|
|-3--------|----------|---------------|----------------|----------|

                        [0:43]
  H    H      W          W          e q  q q e W          W
|-----------|----------|----------|---------------------|------|
|-5----4----|-2--------|----------|---------------------|------|
|-----------|----------|----------|-7-5-----------------|------|
|-----------|----------|-0--------|------7-5-3-0--------|-0----|

 [0:55]
  W  H.  E  E  q  q  W.        W        W
|--------------------------------------------|
|--------2--4--5-----------------------------|
|----5------------5--3-----------------------|
|-5----------------------------0-------------|

 [1:09]
  W W W W W. Q Q W W H H W W
|-------------------------------|
|---------2--2-------5-4-2------|
|-----5--------5-3-5------------|
|-3------------------------0----|
  development and support by
dmitry ivanov