rock
 
|tablatures   |lyrics   |discussion forums   |more tabs @ XGuitar.com

Pink Floyd tabs

The Narrow Way Part 2 guitar tab

Trancription by: Maglor (maglor@ip.pt)

THE NARROW WAY PART TWO
Pink Floyd

"Ummagumma"


detune E string to D sharp

E-----0--3-4--7-6---4-3-4-0-----

E----11-9-11-7--6-4-6--3-----

OR

Trancription by:  Jason Ruel (jason_ruel@hotmail.com)

THE NARROW WAY PART TWO
Pink Floyd

"Ummagumma"


This is how I believe the narrow way pt.2 is played, contrary to the new transciption you have posted.

Standard guitar tuning

E------------------------------------------------------------------
b------------------------------------------------------------------
g------------------------------------------------------------------
d------------------------------------------------------------------
a----------7---10---9---7---------------7---3---5------------------
e--0---7--------------------5---7---0---------------6---8---5---7--0

I hope this helps with this song.

Jason


--
Updated: August 12, 2000
  development and support by
dmitry ivanov