rock
 
|tablatures   |lyrics   |discussion forums   |more tabs @ XGuitar.com

Pink Floyd tabs

The Happiest Days Of Our Lives guitar tab

Transcription by:  ?



THE HAPPIEST DAYS OF OUR LIVES

Pink Floyd

(Waters)



  gtr. 1 (w/delay) PM throughout

|---------------------------------|---------------------------------|

|---------------------------------|---------------------------------|

|---------------------------------|---------------------------------|

|---------------------------------|---------------------------------|

|-5'''''''''''''''''''''''''''''''|'''''''''''''''''''''''''''''''''|

|---------------------------------|---------------------------------|



|---------------------------------|-----------------------------------|

|---------------------------------|-----------------------------------|

|---------------------------------|-----------------------------------|

|---------------------------------|-----------------------------------|

|'''''''''''''''''''''''''''''''''|'''''''''''3'''''''----------------|

|---------------------------------|-------------------6'''''''5---3'''|



|---------------------------------|---------------------------------|

|---------------------------------|---------------------------------|

|---------------------------------|---------------------------------|

|---------------------------------|---------------------------------|

|---------------------------------|---------------------------------|

|'''''''''''''''''''''''''''''''''|'''''''''''''''''''''''''''''''''|



|---------------------------------|---------------------------------|

|---------------------------------|---------------------------------|

|---------------------------------|---------------------------------|

|---------------------------------|---------------------------------|

|---------------------------------|---------------------------------|

|'''''''''''''''''''''''''''''''''|'''''''''''''''''''''''''''''''''|



|---------------------------------|---------------------------------||

|---------------------------------|---------------------------------||

|---------------------------------|---------------------------------||

|---------------------------------|---------------------------------||

|---------------------------------|---------------------------------||

|-3H5---5'''''''''''''''''''''''''|'''''''''''''''''''''''''''''''''||

							    When



|-------------------------------------------------|

|-------------------------------------------------|

|-------------------------------------------------|

|-------------------------------------------------|

|-------------------------------------------------|

|'''''''''''''''''''''''''''''''''''''''''''''''''|

  we    grew  up    and   went  to    school



|-------------------------------------------------|

|-------------------------------------------------|

|-------------------------------------------------|

|-------------------------------------------------|

|-------------------------------------------------|

|'''''''''''''''''''''''''''''''''''''''''''3-----|

  There were  cer - tain  teachers    who   would



|-------------------------------------------------|

|-------------------------------------------------|

|-------------------------------------------------|

|-------------------------------------------------|

|-------------------------------------------------|

|-------------------------3''''''''''''''''''''---|

|-5'''''''''''''''''''''''---------------------3--|

  Hurt  the children      an-y- way         they



|---------------------------------|---------------------------------|

|---------------------------------|---------------------------------|

|---------------------------------|---------------------------------|

|---------------------------------|---------------------------------|

|---------------------------------|---------------------------------|

|-5'''''''''''''''''''''''''''''''|'''''''''''''''''''''''''''''''''|

  could              "Oof!"  				        By



|---------------------------------|---------------------------------|

|---------------------------------|---------------------------------|

|---------------------------------|---------------------------------|

|---------------------------------|---------------------------------|

|---------------------------------|---------------------------------|

|'''''''''''''''''''''''''''''3---|-1'''''''''''''''''''''''''''3---|

  pouring their derision    Upon    anything    we  did         Ex-



|---------------------------------|---------------------------------|

|---------------------------------|---------------------------------|

|---------------------------------|---------------------------------|

|---------------------------------|---------------------------------|

|---------------------------------|---------------------------------|

|-5'''''''''''''''''''''''''''3---|-0'''''''''''''''''''''''''''3B--|

  pos-ing ev- 'ry weakness    How - ever  carefully hidden  by  the



|---------------------------------|---------------------------------|

|---------------------------------|---------------------------------|

|---------------------------------|---------------------------------|

|---------------------------------|---------------------------------|

|---------------------------------|---------------------------------|

|-5'''''''''''''''''''''''''''3-4-|-5'''''''''''''''''''''''''''3-4-|

  kids [laughing]



|---------------------------------|---------------------------------|

|---------------------------------|---------------------------------|

|---------------------------------|---------------------------------|

|---------------------------------|---------------------------------|

|---------------------------------|---------------------------------|

|-5'''''''''''''''''''''''''''3-4-|-5'''''''''''''''''''''''''''''''|

							But in  the



|-------------------------------------------------|

|-------------------------------------------------|

|-------------------------------------------------|

|-------------------------------------------------|

|-5'''''''''''''''''''''''''''''''''''''''''3-----|

|-------------------------------------------------|

  town  it was      well  known When  they  got



|-------------------------------------------------|

|-------------------------------------------------|

|-------------------------------------------------|

|-------------------------------------------------|

|-------------------------------------------------|

|-6'''''''''''''''''''''''''''''''''''''''''5-----|

  home  at night,   their fat   and   Psy - cho -



|-------------------------------------------------|

|-------------------------------------------------|

|-------------------------------------------------|

|-------------------------------------------------|

|-------------------------------------------------|

|-3'''''''''''''''''''''''''''''''''''''''''''''''|

  pathic   wives    would thrash them       Within



				     gtr. 2 (w/dist.)

|---------------------------------||-----------------|-----------------|

|---------------------------------||-----------------|-----------------|

|---------------------------------||-----------------|-3---------------|

|---------------------------------||-3---------------|-3---------------|

|-3'''''''''''''''''''''''''''''''||-3---------------|-1---------------|

|---------------------------------||-1---------------|-----------------|

  inches of their lives		     Ooh   ooh ooh     Ooh   ooh ooh



|-----------------|-----------------|-----------------|

|-----------------|-----------------|-----------------|

|-----------------|-3---------------|-----------------|

|-3---------------|-3---------------|-3---------------|

|-3---------------|-1---------------|-3---------------|

|-1---------------|-----------------|-1---------------|

  Ooh   ooh ooh     Ooh   ooh ooh     Ooh   ooh ooh



|-----------------|-----------------|-----------------||

|-----------------|-----------------|-----------------||

|-3---------------|-5---------------|-----------------||

|-3---------------|-5---------------|-----------------||

|-1---------------|-3---------------|-----------------||

|-----------------|-----------------|-----------------||

  Ooh   ooh ooh     Ooh		      [Scream]





--

Updated:  April 10/98

  development and support by
dmitry ivanov