rock
 
|tablatures   |lyrics   |discussion forums   |more tabs @ XGuitar.com

Pink Floyd tabs

The Gold It's In The... bass tab

Tabbed: by Nick Key (nkey@ionet.net)

The Gold It's in the...
Pink Floyd

"Obscured by Clouds"


Intro - play verse 2x

Verse
4x
|-----------------|
|-----------------|
|---/7-5----------|
|-0------5-5-//---|

Chorus 1
|------------------------------------------------------|
|------------------------------------------------------|
|------------------------------------------------------|
|-7777-77-777-777-/-33-333-333-333-55-555-555-555-/-1--|

Play verse again

Chorus 2
|---------------------------------------------------------------|
|-----------------------------------------4-4-h5-5-4-4----------|
|-------------------------------------4-7--------------7-4-/----|
|-77777777777777/-333333333333333-5-5------------------------1--|

Verse
Chorus 2

Then Chorus 3:
|--------------------------------------------------|
|---4---4---44-2-----------------------------------|
|----------------4-2-0-----------------10-8--------|
|-2---2---2------------2-33333333/7-10------10-8-7-|

|-----------------------------------|
|-----------------------------------|
|-----------------------------------|
|-5555555555555555-7777777777777777-|

Verse

Then chorus 4:
|-------------------------------------------------------|
|---------------------------------------4-XXX-----4-----|
|-----------------------------------4-7-------4-7-------|
|-77777777777777/-333333333333333-5------------------1--|

Then fade out on verse


--
Updated: August 12, 2000
  development and support by
dmitry ivanov