rock
 
|tablatures   |lyrics   |discussion forums   |more tabs @ XGuitar.com

Pink Floyd tabs

Take It Back bass tab

Title:		Take It Back
Artist:		Pink Floyd
Album:	             The Division Bell
Musicians:		David Gilmour	(Guitar)
		Richard Wright	(Keyboards)
		Nick Mason		(drums and percussion)

Tabbed by productofthe70s

each staff is a sentence, chorus, or solo/imtro/outro

G]---------------------------------------------------------
D]---------------------------------------------------------
A]----------------3--------------3-------------------------
E]-3======----------------3--------------3-----------------


G]---------------------------------------------------------
D]---------------------------------------------------------
A]---3=======5---------------------------------------------
E]---------------3=====------------------------------------

              Drums Start
G]---------------------------------------------------------
D]---------------------------------------------------------
A]---3=======5---------------------------------------------
E]---------------3---3---3---3---3---3---3---3-2-0-2-3-----

  Her love...
G]---------------------------------------------------------
D]---------------------------------------------------------
A]---------------------------------------------------------
E]3---3---3---3---3---3---3---3----------------------------

  I listen...
G]---------------------------------------------------------
D]---------------------------------------------------------
A]---------------------------------------------------------
E]3---3---3---3---3---3---3---3----------------------------

  I'd make her...
G]---------------------------------------------------------
D]---------------------------------------------------------
A]3---3---3---3---3----3---3---3---3-----------------------
E]--------------3------------------------------------------

  I push her...
G]---------------------------------------------------------
D]2--------------------------------------------------------
A]---5----------------------------------------------------
E]-----3---3---3---3---3---3---3---3--------------------

  She could take it back...
G]---------------------------------------------------------
D]---------0-2-3========2=======---------------------------
A]--0-2-3------------------------5-------------------------
E]----------------------------------3---3---3---3---3---3-

G]---------------------------------------------------------
D]---------------------------------------------------------
A]--3-----------------3-------------------3---5------------
E]----------3---------------------3------------------3-----


G]---------------------------------------------------------
D]---------------------------------------------------------
A]--3------------------3----------------------3---5--------
E]-----------3----------------------3-------------------3--

6x (I think)
G]---------------------------------------------------------
D]---------------------------------------------------------
A]--3---4/5------------3-------------3---------------------
E]------------3---------------3--------------3-------------


G]---------------------------------------------------------
D]---------------------------------------------------------
A]---3=======5---------------------------------------------
E]---------------3---3---3---3---3---3---3---3-2-0-2-3-----

  I have seen...
G]---------------------------------------------------------
D]---------------------------------------------------------
A]--------------5------------------------------------------
E]3---3---3---3---3---3---3---3----------------------------

  It's easy...
G]---------------------------------------------------------
D]---------------------------------------------------------
A]--------------5------------------------------------------
E]3---3---3---3---3---3---3---3----------------------------

  All of this temptation...
G]---------------------------------------------------------
D]---------------------------------------------------------
A]3---3---3---3---3----3---3---3---3-----------------------
E]--------------3------------------------------------------

  till I couldn't see...
G]---------------------------------------------------------
D]2--------------------------------------------------------
A]---5-----------------------------------------------------
E]-----3---3---3---3---3---3---3---3-----------------------


She could take it back...3x
G]---------------------------------------------------------
D]---------0-2-3========2=======---------------------------
A]--0-2-3------------------------5-------------------------
E]----------------------------------3---3---3---3---3---3--

  2x
G]---------------------------------------------------------
D]---------------------------------------------------------
A]--3---4/5------------3-------------3---------------------
E]------------3---------------3--------------3-------------


G]--------------0h2-2---5=--7------------------------------
D]-------0h2-------------------5---------------------------
A]---0h2---------------------------------------------------
E]---------------------------------------------------------

You might want to listen to the song to perfect the timing.
if you don't if you need like an index for all of the fingering
stuff, go to guitar tabs/ pink floyd/ mother.
enjoy and please rate.
  development and support by
dmitry ivanov