rock
 
|tablatures   |lyrics   |discussion forums   |more tabs @ XGuitar.com

Pink Floyd tabs

Sheep bass tab

From: Lucus Welch 
Artist:	Pink Floyd
Album:	Animals
Song:	Sheep

INTRO											

  Bass starts at 0:13
G--------------------------------------------------------
D--------------------------------------------------------
A---5555555555555555555555555555555555555555555555555----
E--------------------------------------------------------

 
  1:17
G--------------------------------------------------------
D--------------------------------------------------------
A--/8888888000000000000000000000000000000000000000000----
E--------------------------------------------------------

  1:25
G--------------------------------------------------------
D--------------------------------------------------------
A---3333333222222222222222222222222222222222222222222---- 
E--------------------------------------------------------

  1:33
G--------------------------------------------------------
D--------------------------------------------------------
A---333333300000000000000000000000000000000000000000-----
E--------------------------------------------------------

VERSE

G-------------------
D-------------------
A---7--7--x--x--x--- repeat 8 times   
E-------------------                 

G-------------------
D------------------- repeat 8 times
A---0--0--x--x--x---
E-------------------

G-------------------
D-------------------
A---7--7--x--x--x--- repeat 8 times   
E------------------- 

CHORUS

G-------------------
D-------------------
A------------------- repeat 4 times
E---2--2--x--x--x---


G-------------------
D-------------------
A------------------- repeat 4 times
E---5--5--x--x--x---


G-------------------
D-------------------
A------------------- repeat 4 times
E---2--2--x--x--x---
 
G-------------------
D-------------------
A------------------- repeat 4 times
E---5--5--x--x--x---


INTERLUDE

G----------9--9-----
D-------------------
A---7--7------------
E-------------------

then:

G-------------------
D---------7--7------
A---0--0------------
E-------------------


OUTRO

G----------9-9-9----
D-------------------
A---7--7------------ repeat 28 times
E-------------------

G-------------------
D----------7--7-----
A---0--0------------ repeat 8 times and improvise along
E------------------- the way

Song structure:
INTRO
VERSE
CHORUS
VERSE
CHORUS
INTERLUDE
CHORUS
INTRO
VERSE
CHORUS
OUTRO
  development and support by
dmitry ivanov