rock
 
|tablatures   |lyrics   |discussion forums   |more tabs @ XGuitar.com

Pink Floyd tabs

Run Like Hell bass tab

Song: Run Like Hell
Artist: Pink Floyd
Album: The Wall
Tabbed by: Dave Miller (dave@basstabarchive.com)
http://www.basstabarchive.com/

This song is tabbed in dropped D.

Intro/Chorus

Part I
G|-------------------------------------------------------|
D|*------------------------------------------------------|
A|*------------------------------------------------------|
D|---0--0--0--0--0--0--0--0------------------------------|


Part II
G|-------------------------------------------------------|
D|*------------------------------------------------------|
A|*------------------------------------------------------|
D|---3--3--3--3--3--3--3--3--7--7--7--7--7--7--7--7------|
    "Run, Run, Run,....."


Verse

G|-------------------------------------------------------|
D|*------------------------------------------------------|
A|*------------------------------------------------------|
D|----2------3------2------10------9------2--------------|


Last Verse ends on
G|-------------------------------------------------------|
D|*------------------------------------------------------|
A|*------------------------------------------------------|
D|----4--4--4--4--3--1---0-------------------------------|



Structure:

Part I x 10
Part II
Part I x 2
Verse
Part I x 6
Part II
Part I x 2
Verse
Part I x 2
Verse
Part I x 14

  development and support by
dmitry ivanov