rock
 
|tablatures   |lyrics   |discussion forums   |more tabs @ XGuitar.com

Pink Floyd tabs

Obscured By Clouds guitar tab

From: Jeff and Jane Scott 

OBSCURED BY CLOUDS
Pink Floyd
(Waters, Gilmour)

Fade in synth drone on A

E----------------|-------------------|------------------|----------------|
B----------------|-------------------|------------------|----------------|
G----------------|-------------------|------------------|----------------|
D-7--------------|-------------------|------------------|----------------|
A-0--------------|-------------------|------------------|----------------|
E----------------|-------------------|------------------|----------------|

E----------------|-------------------|------------------|----------------|
B----------------|-------------------|------------------|----------------|
G----------------|-------------------|------------------|----------------|
D-7--------------|-------------------|------------------|----------------|
A-0--------------|-------------------|------------------|----------------|
E----------------|-------------------|------------------|----------------|

E----------------|-------------------|------------------|----------------|
B----------------|-------------------|------------------|----------------|
G-7--/9----------|-------------------|------------------|----------------|
D-Slide guitar---|-------------------|-10--/12----------|----------9\--5-|
A----------------|-------------------|------------------|----------------|
E----------------|-------------------|------------------|----------------|

E----------------|-------------------|------------------|----------------|
B----------------|-------------------|------------------|----------------|
G----------------|-------------------|------------------|----------------|
D-5--/7----------|-------------------|------------------|----------------|
A----------------|-------------------|------------------|----------------|
E----------------|-------------------|------------------|----------------|

E----------------|-------------------|------------------|----------------|
B----------------|-------------------|------------------|----------------|
G-7--/9----------|-------------------|------------------|----------------|
D----------------|-------------------|-10--/12----------|----------9\--5-|
A----------------|-------------------|------------------|----------------|
E----------------|-------------------|------------------|----------------|

E----------------|-------------------|------------------|----------------|
B----------------|-------------------|------------------|----------------|
G----------------|-------------------|------------------|----------------|
D-5--/7----------|-----------5--2--0-|------------------|----------------|
A----------------|-------------------|-0----------------|----------------|
E----------------|-------------------|------------------|----------------|

E----------------|-------------------|------------------|----------------|
B----------------|------------8--/10-|-10----------8--8-|-8--------------|
G----------7--/9-|-9-----------------|------------------|------7/-----/9-|
D----------------|-------------------|------------------|----------------|
A----------------|-------------------|------------------|----------------|
E----------------|-------------------|------------------|----------------|




E----------------|-------------------|------------------|----------------|
B----------------|-------------------|------------------|----------------|
G----------------|-------------------|------------------|----------------|
D------------5/--|/7-----------------|-------7--5--2--0-|----------------|
A----------------|-------------------|------------------|-0--------------|
E----------------|-------------------|------------------|----------------|

E----------------|-------------------|------------------|----------------|
B----------------|-------------------|------------------|----------------|
G----------------|-------------------|---------2/-------|/14--14---------|
D----------------|-------------------|------------------|----------------|
A----------------|-------------------|------------------|----------------|
E----------------|-------------------|------------------|----------------|

E----------------|-------------------|------------------|----------------|
B----------------|-------------------|------------------|----------------|
G-------17----12-|-12/14-------------|---------2/-------|/14-------------|
D----------------|-------------------|------------------|----------------|
A----------------|-------------------|------------------|----------------|
E----------------|-------------------|------------------|----------------|

E----------------|-------------------|------------------|----------------|
B----------------|-------------------|------------------|----------------|
G-------17----12-|-12/14-------------|---------------12/|14--14--14------|
D----------------|-------------------|------------------|----------------|
A----------------|-------------------|------------------|----------------|
E----------------|-------------------|------------------|----------------|

E----------------|-------------------|------------------|----------------|
B----------------|-------------------|------------------|----------------|
G-------------12/|14--14--14---------|---------------12/|14--14--14------|
D----------------|-------------------|------------------|----------------|
A----------------|-------------------|------------------|----------------|
E----------------|-------------------|------------------|----------------|

E----------------|-------------------|------------------|----------------|
B----------------|-------------------|------------------|----------------|
G-------------12/|14--14--14---------|---------------12/|14--14--14------|
D----------------|-------------------|------------------|----------------|
A----------------|-------------------|------------------|---fade out...--|
E----------------|-------------------|------------------|----------------|


--
Updated: Oct. 8/97
  development and support by
dmitry ivanov