rock
 
|tablatures   |lyrics   |discussion forums   |more tabs @ XGuitar.com

Pink Floyd tabs

Mother guitar tab

Pink Floyd
The Wall
Mother

Corrections are welcome. Mail me at dmitry_ivanov@aport.ru


I play these chords like this

  G  G  C10  C  D  Dsus4
e-3--3---3---0--2----3---------
B-0--3---3---1--3----3---------
G-0--4---5---0--2----2---------
D-0--5---5---2--0----0---------
A-2--5---3---3--0----0---------
E-3--3---3---3--x----x---------

SOLO:
for better timing listen to the original track


e-----|-------|----------------------|-----------------------|-----------------|
B-----|-13b15-|-15r13p12-13----------|-----------------------|-----------------|
G-----|-------|----------------------|-----------------------|-----------------|
D-<12>|-------|-------------14-13-14-|-\-/10-/10-12X-10p9----|-----------------|
A-----|-------|----------------------|-----------------------|-----------------|
E-----|-------|----------------------|--------------------10-|-8-7-8--8-8b10r8-|


e-------------------------------------|-----------8------------------------|
B-----------(10)b12--12r10p8-(10)b12--|--12r10-8---------------------------|
G-------------------------------------|-------------------9-10-9-------(0)-|
D--------7----------------------------|------------------------------------|
A-------------------------------------|------------------------------------|
E-8b10r8------------------------------|------------------------------------|

e-(12)b14---14r12-10-------(0)-|-(10)b12---12r10-8---8-7-8p7---------------|
B------------------------------|-----------------------------9-------------|
G------------------------------|-------------------------------8-----------|
D------------------------------|---------------------------------5\4-------|
A------------------------------|-------------------------------------5-----|
E------------------------------|-------------------------------------------|



G                           C10        C         D(sus4) G
Mother do you think they'll drop the bomb?
G                                     C          D(sus4) G
Mother do you think they'll like this song?
C                                           C    D5sus2 D
Mother do you think they'll try to break my balls?
D    C
Oooo Ah,              D5          G
Mother should I build the wall?
G                             C     D/C         G
Mother should I run for president?
G                                C
Mother should I trust the government?
C                                     G      D(sus2)
Mother will they put me in the firing line?
D    C
Oooh Ah is it just a waste of time?

(Mother am I really dying)
G                             C
Hush now baby, baby don't you cry.
F                             C
Mama's gonna make all of your nightmares come true
F                             C
Mama's gonna put all of her fears into you
F                                C
Mama's gonna keep you right here under her wing
    F                         C
She won't let you fly but she might let you sing
F                      C
Mama's gonna keep baby cosy and warm
D    C    D    D     D
Oooh babe Oooh babe    Oooh babe
C                                            G
Of course mama's gonna help build the wall
G                         C10   C  D/C    G
Mother do you think she's good enough for me?
G                               C  D/C   D  G
Mother do you think she's dangerous      to me?
C
Mother will she make your little boy apart?
D   C                                  G
Ooh Ah, mother will she break my heart?
G                             C
Hush now baby, baby don't you cry
F                                  C
Mama's gonna check out all of your girlfriends for you
F                     C
Mama won't let anyone dirty get through
F                     C
Mama's gonna wait up 'till you get in
F                      C
Mama will always find out where you've been
F                      C           G
Mama's gonna keep baby healthy and clean
D    C    D    C    D
Oooh babe Oooh babe   Oooh babe
       C                   G
You'll always be a baby to me
                             C
Mother, did it need to be so high?
  development and support by
dmitry ivanov