rock
 
|tablatures   |lyrics   |discussion forums   |more tabs @ XGuitar.com

Pink Floyd tabs

Is There Anybody Out There bass tab

G|-----|
D|---7-|
A|-0---|
E|-----| (x8)

G|--------9----------|-------9----------|-------9----------|-------9----------|
D|---7-10---10-7---7-|--7-10---10-7---7-|--7-10---10-7---7-|--7-10---10-7---7-|
A|-7-------------7---|-8------------8---|-9------------9---|-8------------8---|
E|-------------------|------------------|------------------|------------------|

G|--------9-----5-9-|--------9--------9-|----------9--------|----------9--------|
D|---7-10-----7-----|---7-10-----7-10---|-----7-10---10-7---|-----7-10---10-7---|
A|-7--------5-------|-------------------|-0-7-------------7-|-0-7-------------7-|
E|------------------|-8--------7--------|-------------------|-------------------|

G|----------9--------|----------9---------|
D|-----7-10---10-7---|-----7-10-----------|
A|-0-7-------------7-|-0-7----------------|
E|-------------------|--------------------|

G|--------9----------|-------9----------|-------9----------|-------9----------|
D|---7-10---10-7---7-|--7-10---10-7---7-|--7-10---10-7---7-|--7-10---10-7---7-|
A|-7-------------7---|-8------------8---|-9------------9---|-8------------8---|
E|-------------------|------------------|------------------|------------------|

G|--------------5-9-|-----5-9-5-------|----------9--------|----------9--------|
D|---7-10-----7-----|---7-------7-----|-----7-10---10-7---|-----7-10---10-7---|
A|-8------7-5-------|-5---------------|-0-7-------------7-|-0-7-------------7-|
E|------------------|-------------8-7-|-------------------|-------------------|

G|----------9--------|----------9---------|
D|-----7-10---10-7---|-----7-10-----------|
A|-0-7-------------7-|-0-7----------------|
E|-------------------|--------------------|

G|-----------9---------|---------------9-------|---------9-----|----9---7-------------|
D|--------10---10------|---------10-12---12-10-|-----7-9---9-7-|-10---9---7-10----9---|
A|---7-10---------10-7-|------10---------------|-0-7-----------|---------------10---9-|
E|-8-------------------|-7-10------------------|---------------|----------------------|

G|-----------9---------|---------------9-------|---------9-----|----12-------11------|
D|--------10---10------|---------10-12---12-10-|-----7-9---9-7-|---------------------|
A|---7-10---------10-7-|------10---------------|-0-7-----------|-14-------12---------|
E|-8-------------------|-7-10------------------|---------------|---------------------|

G|--------9----------|-------9----------|-------9----------|-------9----------|
D|---7-10---10-7---7-|--7-10---10-7---7-|--7-10---10-7---7-|--7-10---10-7---7-|
A|-7-------------7---|-8------------8---|-9------------9---|-8------------8---|
E|-------------------|------------------|------------------|------------------|

G|--------9-----5-9-|--------9--------9-|----------7-9-12-13-14---|---------------|
D|---7-10-----7-----|---7-10-----7-10---|-----7-10----------------|---------------|
A|-7--------5-------|-------------------|-0-7---------------------|---------------|
E|------------------|-8--------7--------|-------------------------|---------------|
  development and support by
dmitry ivanov