rock
 
|tablatures   |lyrics   |discussion forums   |more tabs @ XGuitar.com

Pink Floyd tabs

In The Flash ? bass tab

Pink Floyd
"The Wall"
In the Flesh?

 Intro
|--------------------------------------|--------------------------------|
|--------------------------------------|--------------------------------|
|-----------------------------0--2--3--|--10\5-----7--------------------|
|--0--0--------2--------3--------------|--------------0--0-----0--0-----|


                                    4x
||----------------------------------||-----------------------------|
||*--------------------------------*||-----------------------------|
||*-----------7-----------------7--*||-----4--2-----------5--4--2--|
||---0--0-----------0--0-----0------||--5--------5--4--2-----------|


|-------------------------------|
|-------------------------------|
|-------4--2-----------5--4--2--|
|----5--------5--4--2-----------|


|--------------------------------------------------------------------|
|--------------------------------------------------------------------|
|-----4--2-----0--1--2-----5--4--2--3--4-----7--5--4--2--------------|
|--5--------5--------------------------------------------0-----0--0--|

--
(no bass during verses)
--

|-----------------------------|-----------------------------------------|
|-----------------------------|-----------------------------------------|
|-----4--2-----------5--4--2--|-----4--2-----------5--4--5--4--2--4--2--|
|--5--------5--4--2-----------|--5--------5--4--2-----------------------|


|--------------------------------------------------------------------|
|--------------------------------------------------------------------|
|-----4--2-----0--1--2-----5--4--2--3--4-----7--5--4--2--------------|
|--5--------5--------------------------------------------0-----0--0--|
                                                                        

Ends with random slides and sound effects

  development and support by
dmitry ivanov