rock
 
|tablatures   |lyrics   |discussion forums   |more tabs @ XGuitar.com

Pink Floyd tabs

High Hopes bass tab

Song:  High Hopes
Band:  Pink Floyd
Album:  Division Bell

Bass starts at 0:48
G|---------------------------------------------------------------
D|---------------------------------------------------------------
A|---------------------------------------------------------------
E|---3/7-------7------3/7-------7--------------------------------

But Along The Long Road
G|---------------------------------------------------------------
D|---------------------------------------------------------------
A|-3--3------------2----3---3------------------------------------
E|-----4----3---3------------4---3---3-3-------------------------

G|---------------------------------------------------------------
D|---------------------------------------------------------------
A|---------------------------------------------------------------
E|---3/7-------7------3/7-------7--------------------------------

The Grass Was Greener
G|---------------------------------------------------------------
D|---------------------------------------------------------------
A|--3--3-------------3--5-6\\-------------------------------------
E|------3--3-4--4-6------------0--1-2----------------------------x2

G|---------------------------------------------------------------
D|---------------------------------------------------------------
A|---------------------------------------------------------------
E|---3/7-------7------3/5-------7--------------------------------

But A Higher Altitude
G|---------------------------------------------------------------
D|---------------------------------------------------------------
A|-3--3------------2----3---3------------------------------------
E|-----4----3---3------------4---3---3-3-------------------------

Middle Bit
G|-----------------------------------------------
D|-----------------------------------------------
A|-----------------------------------------------
E|--3-----------------3/10--7--------------------

G|------------------------------------------------
D|------------------------------------------------
A|------------------------------------------------
E|--7/10--3-----3-----3-----7-----7-----7-----7---

G|------------------------------------------------
D|------------------------------------------------
A|------------------------------------------------
E|--3-----3-----3-----3-----7-----7-----7-----7---

G|-------------------------------------------------
D|-------------------------------------------------
A|-------------------------------------------------
E|--3-----3-----3-----3-----7-----7-----7---5--3/7-

G|---------------------------------------------------------------
D|---------------------------------------------------------------
A|---------------------------------------------------------------
E|---3/7-------7------3/7-------7--------------------------------

The Grass Was Greener
G|---------------------------------------------------------------
D|---------------------------------------------------------------
A|--3--3-------------3--5-6\\-------------------------------------
E|------3--3-4--4-6------------0--1-2----------------------------

Keep Playing This Through The Solo
  development and support by
dmitry ivanov