rock
 
|tablatures   |lyrics   |discussion forums   |more tabs @ XGuitar.com

Pink Floyd tabs

Hey You guitar tab

Transcription by: Jacob David Sudol



HEY YOU

Pink Floyd

(Roger Waters)





INTRO:

e-|-----------------|-----------------|-------5-----5---|-------5-----5-----|

B-|-7-----8-----8---|-7-----8-----8---|-5-------6-------|-5-------6---------|

G-|-----9---9-----9-|-----9---9-----9-|-----7-----7---7-|-----7-----7---7---|

D-|---9-------9-----|---9-------9-----|---7-------------|---7---------------|

A-|-----------------|-----------------|-----------------|-------------------|

E-|-----------------|-----------------|-----------------|-------------------|

							 ____________________

                                                        |1.                

|-----------------|-----------------|-------5-----5----|-------5-----5------||

|-7-----8-----8---|-7-----8-9---8---|-5-------6--------|-5-------6-----8----||

|-----9---9-----9-|-----9-----9---9-|-----7-----7---7--|-----7-----7-------*||

|---9-------9-----|---9-------------|---7--------------|---7---------------*||

|-----------------|-----------------|------------------|--------------------||

|-----------------|-----------------|------------------|--------------------||



 ________________

|2.            

|--------2------||

|--2-------3----||

|------4--------||

|----4----------||

|---------------||

|---------------||

  Hey                 

                                                        





VERSE:

(Rhythm figure 1)

|------------------|-----------------|-----------------|

|--7-----8-----8---|-7-----8-----8---|-7-----8-7---8---|

|------9---9-----9-|-----9---9-----9-|-----9---------7-|

|----9-------9-----|---9-------9-----|---9-------9-----|

|------------------|-----------------|-----------------|

|------------------|-----------------|-----------------|

you,             Out there in the cold, getting lonely getting cold, Can 



|--------7-------7-|-------7-----7---|-----------------|-----------------|

|--7---7-----7-----|-7---7---7-------|-7-----8-----8---|-7-----8-----8---|

|----------7---7---|-----------7---7-|-----9---9-----9-|-----9---9-----9-|

|----9-------------|---9-------------|---9-------9-----|---9-------9-----|

|------------------|-----------------|-----------------|-----------------|

|------------------|-----------------|-----------------|-----------------|

you feel me                       Hey  you,         Standing in the

                                                         aisles with itchy



|------------------|-------7-----7---|-------7-----7---|-------5-----5---|

|--7-----8-----8---|-7---7---7-----7-|-7---7---7-----7-|-5-------7-------|

|------9---9-----7-|-----------7-----|-----------7-----|-----7-----7---7-|

|----9-------9-----|---9-------------|---9-------------|---7-------------|

|------------------|-----------------|-----------------|-----------------|

|------------------|-----------------|-----------------|-----------------|

feet and fasing smiles can you feel me?            Hey, you     don't

   

(end Rhy. fig 1)

|--------5-----5---|-7-----------3-|-------3-----3---|-------3-----3---|

|--5-------7-------|-8---8-7-------|-5---5---5-----5-|-5---5---5-----3-|

|------5-----7---7-|-7-7-------7---|---5-------5-----|---5-------5-----|

|----7-------------|---------7-----|-----------------|-----------------|

|------------------|---------------|-----------------|-----------------|

|------------------|---------------|-----------------|-----------------|

 help them to bury the light.



|--------7-----7---|-------5-----5---|-----------------|-----------------|

|--7---7---7-----7-|-5---5---5-------|-7-----8-----8---|-7-----8-----8---|

|------------7-----|-----------5---7-|-----9---9-----9-|-----9---9-----9-|

|----9-------------|---7-------------|---9-------9-----|---9-------9-----|

|------------------|-----------------|-----------------|-----------------|

|------------------|-----------------|-----------------|-----------------|

Don't give in             without a fight.



|---------5-----5---|-------5---||

|--5--------6-------|-5-------6-||

|-------7-----7---7-|-----7-----||

|-----7-------------|---7-------||

|-------------------|-----------||

|-------------------|-----------||



VERSE 2:

(Gtr. 1 - Rhy. fig 1

 Gtr. 2 - acoustic strums chords high to low)



Em9

Hey, you

Out there on you own, sitting naked by the phone,

      Bm

would you touch me?

Em9

Hey, you,

with you ear against the wall, waiting for someone to call out,

    Bm              Dsus2

would you touch me?

Hey, you,                      

                                G    D    C 

Would you help me to carry the sto - o - one?

Bm                      C        Em

Open your heart, I'm coming home.



SOLO:(Gtr. 2 electric plays Rhy. fig. 2 - 8 X)

 (Rhythm fig 2)                                           (end Rhy. fig 2)

e-|--------------------------|----------------------|-----------------------||

B-|--------------------------|----------------------|-----------------------||

G-|--------------------------|----------------------|-----------------------||

D-|--------------------------|----------------------|-----------------------||

A-|--------------------------|----------------------|-----------------------||

E-|-10\--0--2-2>(3)-2vvvvvv--|--0--2-2>(3)-2vvvvvv--|--0-0-2-2>(3)-2vvvvvvv-||



(Gtr. 3 electric)

|-----------------------------------------------------------------------------|

|-3>(5)=======(5)vvvvvvvvvvvvv(5)=====>3--3>(5)==(5)vvvvvvvvvvvvvvv(5)====>3--|

|-----------------------------------------------------------------------------|

|-----------------------------------------------------------------------------|

|-----------------------------------------------------------------------------|

|-----------------------------------------------------------------------------|



|-----------------------------------------------------------------------------|

|-3>(5)vvvvvvvvvvvvvvvvvvvv>(4)>(5)>===(4)>(5)>===(4)>(5)------3>(5)vvvvvvvv--|

|-----------------------------------------------------------------------------|

|-----------------------------------------------------------------------------|

|-----------------------------------------------------------------------------|

|-----------------------------------------------------------------------------|



|-----------------------------------------------------------------------------|

|--3/7vvvvvvvvvv--5-7-7>(8)>7vvvvvvvvv---5-7-7>(8)>7vvvvvvvv---5-7-7>(8)>7vvvv|

|-----------------------------------------------------------------------------|

|-----------------------------------------------------------------------------|

|-----------------------------------------------------------------------------|

|-----------------------------------------------------------------------------|



|---------------5--7-5-7--7>(8)vvvvvvvvvv(8)==>7>(8)--7>(8)vvvvvvvv-7---|

|--5vvvvvv-7-8----------------------------------------------------------|

|-----------------------------------------------------------------------|

|-----------------------------------------------------------------------|

|-----------------------------------------------------------------------|

|-----------------------------------------------------------------------|



|--7>(8)vvvvvvv(8)===>7--7>(8)vvvvvvvvv----------12-----------------------|

|----------------------------------------15>(17)-----15>(17)vvvvvvv>(16)--|

|-------------------------------------------------------------------------|

|-------------------------------------------------------------------------|

|-------------------------------------------------------------------------|

|-------------------------------------------------------------------------|



|------------12---15-----------12--15-------------------------|

|---15>(17)-----------15>(17)----------15>(17)vvvvvvvvvvvvvv--|

|-------------------------------------------------------------|

|-------------------------------------------------------------|

|-------------------------------------------------------------|

|-------------------------------------------------------------|



|----------------------------------12------------------------------------|

|--15>(17)======>15>12----------12-----15>(17)=====>(16)>(17)=======>15--|

|-----------------------14>(16)------------------------------------------|

|------------------------------------------------------------------------|

|------------------------------------------------------------------------|

|------------------------------------------------------------------------|



|----------14-15/17-17/19--17--19--19>(20)========(20)>19---19>(20)-17>19--|

|--15>(17)-----------------------------------------------------------------|

|--------------------------------------------------------------------------|

|--------------------------------------------------------------------------|

|--------------------------------------------------------------------------|

|--------------------------------------------------------------------------|



							v-- slow dive w/ bar

|--19>17--20--19>(20)==>19--19>(20)==========(20)==>19>17--19--------------||

|--------------------------------------------------------------------------||

|--------------------------------------------------------------------------||

|--------------------------------------------------------------------------||

|--------------------------------------------------------------------------||

|--------------------------------------------------------------------------||



BRIDGE:

C           D     G  D  C

But it was only  fantasy

C                D       G   D   C   

The wall was too high as you can see.

                 D               G   D     C

No matter how he tried, he could not break free,

            D        Emadd9

and the worms ate into his brain.



Play This 4 Times:

____________________

| 1.-3.

e-|-----------------|-----------------|-------5-----5---|-------5-----5-----||

B-|-7-----8-----8---|-7-----8-----8---|-5-------6-------|-5-------6---------||

G-|-----9---9-----9-|-----9---9-----9-|-----7-----7---7-|-----7-----6---7--*||

D-|---9-------9-----|---9-------9-----|---7-------------|---7--------------*||

A-|-----------------|-----------------|-----------------|-------------------||

E-|-----------------|-----------------|-----------------|-------------------||

 __________________________________________

| 4.

e-|-----5-----5--------5----|----5-----5----|

B-|--5-----------6----------|-5-----------6-|

G-|--------7--------7-----7-|-------7-------|

D-|-----7-------------------|----7----------|

A-|-------------------------|---------------|

E-|-------------------------|---------------|



VERSE:(with Rhy. fig. 1)

Em add9

Hey, you

out there on the road,

Em add 9

always doing what your told,

    Bm

can you help me?

Em add 9

Hey you,

out beyond the wall,

Em add 9

breaking bottles in the hall,

    Bm

can you help me?



ELECTRIC:

e-|----------------------|--------------------------------------------|

B-|----------------------|--------------------------------------------|

G-|---4------5---6---7---|--------------------------------------------|

D-|---4------5---6---7---|--------------------------------------7\----|

A-|---2------3---4---5---|--------------------------------------5\----|

E-|----------------------|--------------------------------------------|

			    Hey you!  Don't tell me there's no hope at



e-|-------------------|------------------------|-------------------|

B-|-------------------|------------------------|-------------------|

G-|--------7----5-----|-----5-----5--5----5\4--|--4----------------|

D-|---5----7----5-----|-----5-----5--5----5\4--|--4----------------|

A-|---5----5----3-----|-----3-----3--3----3\2--|--2----------------|

E-|---3---------------|------------------------|-------------------|

     all______________.                       To - gether we stand, 



e-|------------------------|-------------------------||

B-|------------------------|-------------------------||

G-|---2--------------------|-------------------------||

D-|---2--------------------|---2---------------------||

A-|---0--------------------|---2---------------------||

E-|------------------10\---|---0---------------------||

		divided we fall.       

             







HEY YOU

Pink Floyd

(Waters)



CAPO 3



INTRO:

e-|-------0-----0---|-------0-----0---|-------2-----2---|-------2-----2-----|

B-|-4---------------|-4---------------|-2-------3-------|-2-------3---------|

G-|-----6---6-----6-|-----6---6-----6-|-----4-----4---4-|-----4-----4---4---|

D-|---6-------6-----|---6-------6-----|---4-------------|---4---------------|

A-|-----------------|-----------------|-----------------|-------------------|

E-|-----------------|-----------------|-----------------|-------------------|

									   

							____________________

						       |1.                

|-------0-----0---|-------0-----0---|-------2-----2----|-------2-----2-0----||

|-4---------------|-4-------6-------|-2-------3--------|-2-------3----------||

|-----6---6-----6-|-----6-----6---6-|-----4-----4---4--|-----4-----4-------*||

|---6-------6-----|---6-------------|---4--------------|---4---------------*||

|-----------------|-----------------|------------------|--------------------||

|-----------------|-----------------|------------------|--------------------||

									   

 ________________

|2.            

|--------2------||

|--2-------3----||

|------4--------||

|----4----------||

|---------------||

|---------------||

	     Hey                 

							  

VERSE:                                                   

 (Rhythm figure 1)

|--------0-----0---|-------0-----0---|-------0-----0---|

|--4---------------|-4---------------|-4-------4-----0-|

|------6---6-----6-|-----6---6-----6-|-----6-----------|

|----6-------6-----|---6-------6-----|---6-------6-----|

|------------------|-----------------|-----------------|

|------------------|-----------------|-----------------|

   you,             Out there in the cold, getting lonely getting cold, Can 

									   

|--------4-------4-|-------4-----4---|-------0-----0---|-------0-----0---|

|--4---4-----4-----|-4---4---4-----0-|-4---------------|-4---------------|

|----------4---4---|-----------4-----|-----6---6-----6-|-----6---6-----6-|

|----6-------------|---6-------------|---6-------6-----|---6-------6-----|

|------------------|-----------------|-----------------|-----------------|

|------------------|-----------------|-----------------|-----------------|

  you feel me                    Hey  you,               Standing in the

							   aisles with itchy

   

|--------0-----0---|-------4-----4---|-------4-----4---|-------2-----2---|

|--4-------------0-|-4---4---4-----4-|-4---4---4-----4-|-2-------4-------|

|------6---6-------|-----------4-----|-----------4-----|-----4-----4---4-|

|----6-------6-----|---6-------------|---6-------------|---4-------------|

|------------------|-----------------|-----------------|-----------------|

|------------------|-----------------|-----------------|-----------------|

 feet and fasing smiles can you feel me?                Hey, you     don't

   

							(end Rhy. fig 1)

|--------2-----2---|-4-----------0-|-------0-----0---|-------0-----0---|

|--2-------4-----0-|-5---5-4-------|-2---2---2-----2-|-2---2---2-----0-|

|------2-----4-----|-4-4-------4---|---2-------2-----|---2-------2-----|

|----4-------------|---------4-----|-----------------|-----------------|

|------------------|---------------|-----------------|-----------------|

|------------------|---------------|-----------------|-----------------|

 help them to bury the light.

									   

|--------4-----4---|-------2-----2---|-------0-----0---|-------0-----0---|

|--4---4---4-----4-|-2---2---2-----0-|-4---------------|-4---------------|

|------------4-----|-----------2-----|-----6---6-----6-|-----6---6-----6-|

|----6-------------|---4-------------|---6-------6-----|---6-------6-----|

|------------------|-----------------|-----------------|-----------------|

|------------------|-----------------|-----------------|-----------------|

  Don't give in             without a fight.

									   

|---------2-----2---|-------2---||

|--2--------3-------|-2-------3-||

|-------4-----4---4-|-----4-----||

|-----4-------------|---4-------||

|-------------------|-----------||

|-------------------|-----------||



VERSE 2:(Gtr. 1 - Rhy. fig 1,

	 Gtr. 2 - acoustic no capo strums chords high to low)



    Em9

Hey, you

Out there on you own, sitting naked by the phone,

      Bm

would you touch me?

    Em9

Hey, you,

with you ear against the wall, waiting for someone to call out,

      Bm              Dsus2

would you touch me?

Hey, you,                      

				G    D    C 

Would you help me to carry the sto - o - one?

Bm                      C        Em

	Open your heart, I'm coming home.



SOLO:(Gtr. 2 electric plays Rhy. fig. 2 - 8 X)

   (Rhythm fig 2)                                           (end Rhy. fig 2)

e-|--------------------------|----------------------|-----------------------||

B-|--------------------------|----------------------|-----------------------||

G-|--------------------------|----------------------|-----------------------||

D-|--------------------------|----------------------|-----------------------||

A-|--------------------------|----------------------|-----------------------||

E-|-10\--0--2-2>(3)-2vvvvvv--|--0--2-2>(3)-2vvvvvv--|--0-0-2-2>(3)-2vvvvvvv-||



(Gtr. 3 electric)

|-----------------------------------------------------------------------------|

|-3>(5)=======(5)vvvvvvvvvvvvv(5)=====>3--3>(5)==(5)vvvvvvvvvvvvvvv(5)====>3--|

|-----------------------------------------------------------------------------|

|-----------------------------------------------------------------------------|

|-----------------------------------------------------------------------------|

|-----------------------------------------------------------------------------|



|-----------------------------------------------------------------------------|

|-3>(5)vvvvvvvvvvvvvvvvvvvv>(4)>(5)>===(4)>(5)>===(4)>(5)------3>(5)vvvvvvvv--|

|-----------------------------------------------------------------------------|

|-----------------------------------------------------------------------------|

|-----------------------------------------------------------------------------|

|-----------------------------------------------------------------------------|



|-----------------------------------------------------------------------------|

|--3/7vvvvvvvvvv--5-7-7>(8)>7vvvvvvvvv---5-7-7>(8)>7vvvvvvvv---5-7-7>(8)>7vvvv|

|-----------------------------------------------------------------------------|

|-----------------------------------------------------------------------------|

|-----------------------------------------------------------------------------|

|-----------------------------------------------------------------------------|



|---------------5--7-5-7--7>(8)vvvvvvvvvv(8)==>7>(8)--7>(8)vvvvvvvv-7---|

|--5vvvvvv-7-8----------------------------------------------------------|

|-----------------------------------------------------------------------|

|-----------------------------------------------------------------------|

|-----------------------------------------------------------------------|

|-----------------------------------------------------------------------|



|--7>(8)vvvvvvv(8)===>7--7>(8)vvvvvvvvv----------12-----------------------|

|----------------------------------------15>(17)-----15>(17)vvvvvvv>(16)--|

|-------------------------------------------------------------------------|

|-------------------------------------------------------------------------|

|-------------------------------------------------------------------------|

|-------------------------------------------------------------------------|



|------------12---15-----------12--15-------------------------|

|---15>(17)-----------15>(17)----------15>(17)vvvvvvvvvvvvvv--|

|-------------------------------------------------------------|

|-------------------------------------------------------------|

|-------------------------------------------------------------|

|-------------------------------------------------------------|



|----------------------------------12------------------------------------|

|--15>(17)======>15>12----------12-----15>(17)=====>(16)>(17)=======>15--|

|-----------------------14>(16)------------------------------------------|

|------------------------------------------------------------------------|

|------------------------------------------------------------------------|

|------------------------------------------------------------------------|



|----------14-15/17-17/19--17--19--19>(20)========(20)>19---19>(20)-17>19--|

|--15>(17)-----------------------------------------------------------------|

|--------------------------------------------------------------------------|

|--------------------------------------------------------------------------|

|--------------------------------------------------------------------------|

|--------------------------------------------------------------------------|

							  v-- slow dive w/ bar

|--19>17--20--19>(20)==>19--19>(20)==========(20)==>19>17--19--------------||

|--------------------------------------------------------------------------||

|--------------------------------------------------------------------------||

|--------------------------------------------------------------------------||

|--------------------------------------------------------------------------||

|--------------------------------------------------------------------------||



BRIDGE:

C           D     G  D  C

 But it was only  fantasy

		 D       G   D   C   

The wall was too high as you can see.

		 D               G   D     C

No matter how he tried, he could not break free,

		  D        Emadd9

and the worms ate into his brain.

 

Play This 4 Times:

							 ____________________

							| 1.-3.                  

e-|-------0-----0---|-------0-----0---|-------2-----2---|-------2-----2-----||

B-|-4---------------|-4---------------|-2-------3-------|-2-------3-----0---||

G-|-----6---6-----6-|-----6---6-----6-|-----4-----4---4-|-----4-----4------*||

D-|---6-------6-----|---6-------6-----|---4-------------|---4--------------*||

A-|-----------------|-----------------|-----------------|-------------------||

E-|-----------------|-----------------|-----------------|-------------------||

   __________________________________________

  | 4.

e-|-----2-----2--------2----|----2-----2----|

B-|--2-----------3----------|-2-----------3-|

G-|--------4--------4-----4-|-------4-------|

D-|-----4-------------------|----4----------|

A-|-------------------------|---------------|

E-|-------------------------|---------------|



VERSE:(with Rhy. fig. 1)

Em add9

Hey, you

out there on the road,

Em add 9

always doing what your told,

    Bm

can you help me?

Em add 9

Hey you,

out beyond the wall,

Em add 9

breaking bottles in the hall,

    Bm

can you help me?



ELECTRIC:

e-|----------------------|--------------------------------------------|

B-|----------------------|--------------------------------------------|

G-|---4------5---6---7---|--------------------------------------------|

D-|---4------5---6---7---|--------------------------------------7\----|

A-|---2------3---4---5---|--------------------------------------5\----|

E-|----------------------|--------------------------------------------|

			   Hey you!  Don't tell me there's no hope at



e-|-------------------|------------------------|-------------------|

B-|-------------------|------------------------|-------------------|

G-|--------7----5-----|-----5-----5--5----5\4--|--4----------------|

D-|---5----7----5-----|-----5-----5--5----5\4--|--4----------------|

A-|---5----5----3-----|-----3-----3--3----3\2--|--2----------------|

E-|---3---------------|------------------------|-------------------|

    all______________.                       To - gether we stand, 

    

e-|------------------------|-------------------------||

B-|------------------------|-------------------------||

G-|---2--------------------|-------------------------||

D-|---2--------------------|---2---------------------||

A-|---0--------------------|---2---------------------||

E-|------------------10\---|---0---------------------||

		   divided we fall.       

		

				[segue to Is There Anybody Out There?]

  development and support by
dmitry ivanov