rock
 
|tablatures   |lyrics   |discussion forums   |more tabs @ XGuitar.com

Pink Floyd tabs

Goodbye Cruel World bass tab

Song: Goodbye cruel world
Artist: Pink Floyd

  Goodbye cruel world
G|-------7-----7---|
D|-----------------|
A|----5-----5------|
E|-----------------|

  I'm leaving you today
G|-----------------|
D|-------5-----5---|
A|-----------------|
E|----3-----3------|

  Goodbye, Goodbye, Goodbye
G|-------7---------------7--|
D|--------------7-----------|
A|--5---------------5-------|
E|---------5----------------|


  Goodbye all you people
G|-------7-----7---|
D|-----------------|
A|----5-----5------|
E|-----------------|

  There's nothing you can say
G|-----------------|
D|-------5-----5---|
A|-----------------|
E|----3-----3------|

  To make me change my mind, Goodbye.
G|-------7---------------------------|
D|--------------7--------------------|
A|--5------------------------5-------|
E|---------5-------------------------|
  development and support by
dmitry ivanov