rock
 
|tablatures   |lyrics   |discussion forums   |more tabs @ XGuitar.com

Pink Floyd tabs

Goodbye Blue Sky bass tab

0:24
G-------------|  |-------------|  |*-------------|
D-------------|x4|-------------|x6|*-------------|x4
A-5--5--5--5--|  |-------------|  |*-5--5--5--5--|
E-------------|  |-5--5--5--5--|  |*------------5|

                             1:17
G---------------------*|   |-------------|
D---------------------*|*x3|-------------|x8
A-2----2----2----2---3*|   |-------------|
E---------------------*|   |-5--5--5--5--|


G---------------------| |-------------|  |---------------------|
D---------------------| |-------------|x4|---------------------|
A-2----2----2----2---3| |-5--5--5--5--|  |-2----2----2----2---3|
E---------------------| |-------------|  |---------------------|


G-------------|  |---------------------|
D-------------|x2|---------------------|
A-5--5--5--5--|  |-2----2----2----2----|
E-------------|  |---------------------|

  2:01                              End Solo
G-------------|  |-------------|  |-------5p3p2-----|
D-------------|x6|-------------|x9|------------3/5--|
A-------------|  |-5--5--5--5--|  |-5--5----------5-|
E-5--5--5--5--|  |-------------|  |-----------------|
  development and support by
dmitry ivanov