rock
 
|tablatures   |lyrics   |discussion forums   |more tabs @ XGuitar.com

Pink Floyd tabs

Free Four guitar tab

Free Four by Pink Floyd (from the album Obscured by Clouds)
written by Roger Waters
transcribed by Maxxdaddy

Solo:
---------7------------------------10(12)10-------------------------------------
-----------10(12)--7-10-7h10-7h10----------10-7------------7(8)-----7h10-7h10~-
---9(11)----------------------------------------9(10)-7----7(8)----------------
--------------------------------------------------------9~-------9~------------
-------------------------------------------------------------------------------
-------------------------------------------------------------------------------

-10(12)10-7-------------------------------------------
------------10------------7(8)-----9(10)-9(10)--------
---------------9-7(8)-----7(8)-----9(10)-9(10)--------
----------------------9~-------9-7--------------9-7-9-
------------------------------------------------------
------------------------------------------------------

verse fills(after solo):
--------3------------|--3-----------------|-----------15-----
------3---6~~--(8)~--|----6~--------------|--------15----16~-
-5(7)----------------|-------5(6)-3-------|-17(19)-----------
---------------------|--------------5-3h5-|------------------
---------------------|--------------------|------------------
---------------------|--------------------|------------------

outro:
--------------10-12(14)~-12-10-12-10----10(11)----------------------
-10h12-12--12------------------------12--------12~--10p7------------
---------------------------------------------------------9(10)-7----
-----------------------------------------------------------------9~-
--------------------------------------------------------------------
--------------------------------------------------------------------

-----------7-9(11)----7------7-9(11)----7----------
-10------7---------10---7-10---------10---10-------
----7(9)-------------------------------------9-7---
-------------------------------------------------9-
---------------------------------------------------
---------------------------------------------------

--------5(7)---3------------------15-15-18(20)\--------15-15-15~-15(17)15-13-15~\-
--/8~~-------6----------------/18---------------18(20)----------------------------
------------------5(6)-3----------------------------------------------------------
-------------------------5~-------------------------------------------------------
----------------------------------------------------------------------------------
----------------------------------------------------------------------------------
                                                                                        
-/15-18-18-20(22)~-(22)20-15--------15~-17(19)17-15--------------------------------------
-----------------------------18(20)-----------------18---------------------12h15-15(17)~-
-------------------------------------------------------17-15~\---/17-/12~----------------
-----------------------------------------------------------------------------------------
-----------------------------------------------------------------------------------------
-----------------------------------------------------------------------------------------
  h         
-12--------------------------
-----------13-15----13-15~~~-
----/12-15-------15----------
-----------------------------
-----------------------------
-----------------------------

Intro:

(G!    G C G)4x

Lyrics:
G			     C
The memories of a man in his old age
	D                      G!     G C G
Are the deeds of a man in his prime.
G                           C
You shuffle in gloom of the sickroom
    D                             G!   G C G
And talk to yourself till you die.

Life is a short, warm moment
And death is a long cold rest.
You get your chance to try in the twinkling of an eye
Eighty years, with luck, or even less.

So all aboard for the American tour,
And maybe you'll make it to the top.
And mind how you go, and I can tell you, 'cause I know
You may find it hard to get off.

Solo:
(B    G A)4x 
(G!    G C G)2x

You are the angel of death
And I am the dead man's son
And he was buried like a mole in a fox hole.
And everyone is still in the run.

And who is the master of fox hounds?
And who says the hunt has begun?
And who calls the tune in the courtroom?
And who beats the funeral drum?

The memories of a man in his old age
Are the deeds of a man in his prime.
You shuffle in gloom in the sickroom
And talk to yourself till you die.

Outro:
(B    G A)4x 
G!    G C G - fade
  development and support by
dmitry ivanov