rock
 
|tablatures   |lyrics   |discussion forums   |more tabs @ XGuitar.com

Pink Floyd tabs

Empty Spaces bass tab

Empty Spaces/Young Lust
Pink Floyd
from "The Wall"

"Empty Spaces"                                                          

|-----------------------------------------------------------------------
|-----------------------------------------------------------------------
|-----------------------------------------------------------------------
|--7-----------2-----------7-----------2-----------0-----------2--------

------------------------------------|--------------------------
---------------------------------9--|--9--7--5--4--2--0--------
------------------------------------|--------------------2-----
------3-----------5-----7-----------|--------------------------

         What shall...                        2x
||--------------------------------------------||
||*------------------------------------------*||
||*------------------------------------------*||
||-------0-----2-----2--3-----2-----3--2------||

                                            2x
||------------------------------------------||
||*----------------------------------------*||
||*----------------------------------------*||
||---0-----2-----2--3-----3----2-----3--2---||

tabbed by Jérôme Melançon
melancon@mindless.com

  development and support by
dmitry ivanov