rock
 
|tablatures   |lyrics   |discussion forums   |more tabs @ XGuitar.com

Pink Floyd tabs

Dont Leave Me Now bass tab

Song: Dont leave me now
Artist: Pink Floyd
Album: The Wall
Tabbed by Shaman

I tabbed it for a 5-string bass, but itís easy to play on a 4-string.. Also it is best played with a pick for better sound..

G|------------------------------------|
D|------------------------------------|
A|------------------------------------|
E|--0---------------3-5-6-------0-1-3-|
B|--------2---------------------------|


  Oooo Babe  Don't leave me now.
G|---------------------------------------|
D|---------------------------------------|
A|---------------------------------------|
E|------0--------------------------------|
B|-----------------------------------2---|


Don't say it's the end of the road. Remember the flowers I sent?
G|------------------------------------|
D|------------------------------------|
A|------------------------------------|
E|----------------------3--5---6------|
B|------------------------------------|


   I need you Babe
G|-----------------|
D|-----------------|
A|-----------------|
E|--0-1-3----------|
B|-----------------|

To put through the shredder in front of my friends
In front of my friends


  Ooooh Babe. Donít leave me now.
G|---------------------------------------|
D|---------------------------------------|
A|---------------------------------------|
E|-------0-------------------------------|
B|-----------------------------------2---|


  How could you go?
G|--------------------------|
D|--------------------------|
A|--------------------------|
E|---------------------6----|
B|--------------------------|


   When you know how I need you.
G|-----------------------------------------------|
D|-----------------------------------------------|
A|-----------------------------------------------|
E|--------------------------------0-1-3----------|
B|-----------------------------------------------|


To beat to a pulp on a Saturday night

  Ooooh Babe Don't leave me now
G|---------------------------------------|
D|---------------------------------------|
A|---------------------------------------|
E|-------0-------------------------------|
B|-----------------------------------2---|


  How can you treat me this way?
G|---------------------------------|
D|---------------------------------|
A|---------------------------------|
E|-------------------3--5---6------|
B|---------------------------------|


   Running away
G|--------------------------------------|
D|--------------------------------------|
A|--------------------------------------|
E|-----------------------0-1-3----------|
B|--------------------------------------|


Ooooooh babe
Why are you running away?

  Guitar Solo
G|-----------------------------------------------------------
D|-----------------------------------------------------------
A|---5--5-5------------5--5-5------------5--/17\\--5-5--/17\\--
E|------------5--5-5------------5--5-5-----------------------
B|-----------------------------------------------------------

------------------------------------------------------|
------------------------------------------------------|
--------------4-5--/17\\--5-5--/17\\--8---10---12-14-15-|
-5--5-5---5-7-----------------------------------------|
------------------------------------------------------|

Enjoy the song..
  development and support by
dmitry ivanov