rock
 
|tablatures   |lyrics   |discussion forums   |more tabs @ XGuitar.com

Pink Floyd tabs

Dogs Of War guitar chords

Transcription by:  ?

DOGS OF WAR
Pink Floyd
(Gilmour, Moore)

Cm
Dogs of war, and men of hate,
With no cause, we don't disciminate,
Discovery, is to be disowned,
Our currency, is flesh and bone,
Ebm
Hell opened up, and put on sale,
Gather 'round and haggle,
Cm
For hard cash we lie, and decieve,
But even our masters dont know the webs we weave,

Ab
One world, it's a battleground,
Fm
One world, and we will smash it down,
Cm
One world, one world

Cm
Invisable transfers, long distance calls,
Hollow laughter, in marble halls,
Steps have been taken, a silent uproar,
Has unleashed the dogs of war,
Ebm
You can't stop what has begun,
Signed, sealed, they deliver olivion,
Cm
We all have a dark side, to say the least,
And dealing in death is the nature of the beast

Ab
One world, it's a battleground,
Fm
One world, and we will smash it down,
Cm
One world, one world,


SOLO:
e-|-------------------------------------------------------|
B-|-------------------------------------------------------|
G-|--10h12===(12)p10p8-------------------------8------8---|
D-|---------------------10vvvvv--10vvvvvv-10\-----10------|
A-|-------------------------------------------------------|
E-|-------------------------------------------------------|

e-|------------------------------------------------|
B-|--/13--13vvvvvv--13vvvv--13vvv--13p11h13b(16)---|
G-|------------------------------------------------|
D-|------------------------------------------------|
A-|------------------------------------------------|
E-|------------------------------------------------|

e-|-----------------------------|
B-|-----------------------------|
G-|--3--------------------------|
D-|-----5-------------1-----1---|
A-|--------3--3--3p1-----3------|
E-|-----------------------------|

e-|-----------------------------------------------11-------------------------|
B-|-----11-------11-------11---11--------------------------------------------|
G-|-10b(11)--10b(11)--10b(11)--10p8------10b(11)------10------8h10--10--10p8-|
D-|----------------------------------10-------------------10-----------------|
A-|--------------------------------------------------------------------------|
E-|--------------------------------------------------------------------------|

e-|---------------------------|
B-|---------------------------|
G-|------10p0--------------8--|
D-|--10--------10vvvvvvvv-----|
A-|---------------------------|
E-|---------------------------|

e-|------------------------------------------------------------|
B-|------7--9--9b(11)--9b(11)--9p7-----7--9--9b(10)r9p7-----7--|
G-|--/8-----------------------------8--------------------8-----|
D-|------------------------------------------------------------|
A-|------------------------------------------------------------|
E-|------------------------------------------------------------|

e-|-------------11--11--------------------------------------------------------|
B-|-/11--14p11----------14p11-------------------------------------------------|
G-|----------------------------13p11------11--13b(14)r13p11------13--------11-|
D-|---------------------------------13---------------------13------13vvvv-----|
A-|---------------------------------------------------------------------------|
E-|---------------------------------------------------------------------------|

e-|--------------------------11p8--8--11p8--11p8--8---------11--8--8--8--11p8-|
B-|------------13vvv--13p11--------------------------11--8--------------------|
G-|--13\/---------------------------------------------------------------------|
D-|---------------------------------------------------------------------------|
A-|---------------------------------------------------------------------------|
E-|---------------------------------------------------------------------------|

e-|--11b(13)b(14)--11--8--11--10p8--12--8vvvvvv\-|
B-|----------------------------------------------|
G-|----------------------------------------------|
D-|----------------------------------------------|
A-|----------------------------------------------|
E-|----------------------------------------------|

e-|-----11--13vvvvvvvvp11--13--13--13--11------11----------11-----------------|
B-|-13-------------------------------------13------13vvvv------13b(16)vvvvvv\-|
G-|---------------------------------------------------------------------------|
D-|---------------------------------------------------------------------------|
A-|---------------------------------------------------------------------------|
E-|---------------------------------------------------------------------------|

e-|--------------------------------------8------------------------------------|
B-|-----------------------------------------/13vvvvvvv--10b(11)r10------------|
G-|-------8--10--10p8------8--10--10h12-----------------10b(11)r10------8-----|
D-|--/10---------------10-------------------------------------------10-----10-|
A-|---------------------------------------------------------------------------|
E-|---------------------------------------------------------------------------|

REPEAT 2ND VERSE(with diff lyrics)

SAX SOLO

VERSE:
    Cm
e-|--------------------------------|-----------------------------------------|
B-|--------------------11----------|-----------------------------------------|
G-|----------------10b(11)r10p8----|-------------8vvvvvvvvvvvv---------------|
D-|--------------------------------|----------------------------10vvvvvvvvv--|
A-|--------------------------------|-----------------------------------------|
E-|--------------------------------|-----------------------------------------|
    The dogs of war   	    won't    negotiate.

e-|--------------------------------|---------------8-------------------------|
B-|--------------------------------|------------8-----/13vvvvvvp11--13b(16)--|
G-|--------------------------------|-----------------------------------------|
D-|--------------------------------|-----------------------------------------|
A-|--------------------------------|-----------------------------------------|
E-|--------------------------------|-----------------------------------------|
    The dogs of war         won't  capitulate.

e-|---------------------------------|---------------------------------|
B-|---------------------------------|---------------------------------|
G-|------------------(11)r10p8------|---------------------------------|
D-|---------------------------------|---------------------------------|
A-|---------------------------------|---------------------------------|
E-|---------------------------------|---------------------------------|
    They will take,		       and you will give.
								    Ebm
e-|---------------------------------|---------------------------------------|
B-|---------------------------------|------------------------/11\/\/p9p7----|
G-|---------------------------------|---------------------------------------|
D-|---------------------------------|---------------------------------------|
A-|---------------------------------|---------------------------------------|
E-|---------------------------------|---------------------------------------|
     And you must die,		 so   that they may live.	     You can

e-|-------------------------11------|------------------------------|
B-|----------------9b(11)--------7--|------------------------------|
G-|---------------------------------|--8vvvvvvvv-------------------|
D-|---------------------------------|------------------------------|
A-|---------------------------------|------------------------------|
E-|---------------------------------|------------------------------|
    knock  at any  door,	       but wherever you go

e-|----------------------10-----------------|
B-|-------------------9>(10)>9>(10)--7------|
G-|-------------------------------------8\--|
D-|-----------------------------------------|
A-|-----------------------------------------|
E-|-----------------------------------------|
    you know they've been there   before.

           Cm
e-|--------------------------------------|-----------------------------|
B-|--------------------------------------|-----------------------------|
G-|--------------------------------------|-----------------------------|
D-|-10vvvv\---------------------8tr10----|-----------------------------|
A-|--------------------------------------|-----------------------------|
E-|--------------------------------------|-----------------------------|
	   But winners can  lose,          things can get strained,

e-|--------------------------------|----------------------------------------|
B-|-----------------11-------------|----------------------------------------|
G-|-------------10b(12)=====r10p8--|-----------------------10b(12)---10--8\-|
D-|--------------------------------|----------------------------------------|
A-|--------------------------------|----------------------------------------|
E-|--------------------------------|----------------------------------------|
   But whatever you change	    you know the dogs remain.

    Ab7				      Fm		 G7sus4
e-|---------------------------------|----------------------------------|
B-|-6--4----------------------------|----------------------------------|
G-|-6--5----------------------------|----------------------------------|
D-|--------6------------------------|----------------------------------|
A-|---------------------------------|----------------------------------|
E-|---------------------------------|----------------------------------|
   One world,  it's a battleground.   One world, we will smash it down.

    Cm
e-|--------------------------------|------------------------------------------|
B-|--------------------------------|------------------------------------------|
G-|----------12>(15)====>12vvvvvv--|----------10b(12)r(11)r10----------8------|
D-|--------------------------------|------------------------------8h10---10vv-|
A-|--------------------------------|------------------------------------------|
E-|--------------------------------|------------------------------------------|
   One world.			    One world.

e-|-----------------------------------------------------------|
B-|---------11vvvvvvvvv---11----------------------------------|
G-|-----10b(12)vvvvvvvv-------10b(11)r10p8--------------------|
D-|-----------------------------------------10-----8tr10------|
A-|-----------------------------------------------------------|
E-|-----------------------------------------------------------|
   One world

e-|--------------------------------||
B-|---------11-11b(13)vvvvvvvvv\---||
G-|--------------------------------||
D-|--------------------------------||
A-|--------------------------------||
E-|--------------------------------||
   One world

--
Updated:  April 10/98
  development and support by
dmitry ivanov