rock
 
|tablatures   |lyrics   |discussion forums   |more tabs @ XGuitar.com

Pink Floyd tabs

Crying Song guitar tab

CRYING SONG
Pink Floyd
(R. Waters)

				Riff 1
      D5     D?    Dsus2    /      /      /      /
|-----5------4-----0------|-------------------------|--
|-----3------3-----3------|-------------------------|--
|-----2------2-----2------|-------------------------|--
|-----0------0-----0------|-------------------------|--
|-------------------------|-0-4--0-5--0-6--0-7---12-|--
|-------------------------|-------------------------|--

   D5        D?
We smile and smile.
   D5        D?       D Dsus2
We smile and smile.
D                       G     G G/F# E
Laughter echoes in your eyes

 Riff1          D   Dsus2   D


   D           D(-5)
We climbed and climbed
   D           D(-5)
We climbed and climbed
D                        G      Em  D
Foot falls softly in the pines

BRIEF SOLO:
e-|--------------------------------------------||
B-|--------------------------------------------||
G-|--------------------------------------------||
D-|------------------------------------------0-||
A-|--0---4---0---5---0---6---0---7---0---7-----||
E-|--------------------------------------------||

   D       D(-5)
We cry and cry
   D       D(-5)
We cry and cry
D                   G      Em  D
Sadness passes in a while
   D        D(-5)
We roll and roll
   D        D(-5)
We roll and roll
D                     G     Em  D
Help me roll away the stone
  development and support by
dmitry ivanov