rock
 
|tablatures   |lyrics   |discussion forums   |more tabs @ XGuitar.com

Pink Floyd tabs

Another Brick In The Wall Part 3 bass tab

Song: Another Brick In The Wall Part 3
Artist: Pink Floyd
Album: The Wall
Tabbed by: Kenny Borders (Spankielnc@aol.com)

Verse (4x)       Loud Part
G-------------| |------------------------|
D--0-------0--| |-----5------5-5------5--|
A-------------| |--1/5-------------------|
E-------------| |------------------------|

"No, don't think.."
G---------------------------------------|
D-----5-------------------5\3-----------|
A--1/5------1/5-3-5-3-5-3----5-------5--|
E---------------------------------------|

Chorus
G-------------|------------------(3)--|
D--3----------|------3----------------|     into
A------3---5--|--15\2----3---5--------|   Goodbye Cruel World
E-------------|-----------------------|
  development and support by
dmitry ivanov