rock
 
|tablatures   |lyrics   |discussion forums   |more tabs @ XGuitar.com

Pearl Jam tabs

You Are bass tab

Pearl Jam, 'Riot Act': YOU ARE


 Tuning: standard BEADG

 This tab is delineated for structure, not to indicate bars.


  >> Prechorus                                                      <<
 G|----------------------------------------|-------------------------|
 D|----------------------------------------|-------------------------|
 A|--3----------1------1h3-----------------|--1h3---------1----------|
 E|---------1--------------------------4---|-----------1-------------|
 B|-----1-------------------1-----4--------|--------1----------------|




  >> Verse 1
  |----------------------|-----------------|-----|---3--0----------|
  |----------------------|-----------------|-1-3-|---------1-------|
  |--1h3--3-3-3-3-3-3-3--|--1h3---3-3-3-3--|-----|------------3----|
  |----------------------|-----------------|-----|-----------------|
  |----------------------|-----------------|-----|-----------------|
   |_________A__________| |_______A'______|       |_______C______|


  ||2x        ||       ||2x                            ||
  ||----------||-------||---------|---------|----------||---------|
  ||----------||-------||---------|---------|--1---3---||---------|
  ||:---A----:||-- C---||:---A----|----A'---|---------:||----C----|
  ||----------||-------||---------|---------|----------||---------|
  ||----------||-------||---------|---------|----------||---------|


  ||2x       ||         ||2x                ||       <<
  ||---------||---------||---------|--------||--------|
  ||---------||---------||---------|--1--3--||--------|
  ||:--A----:||----C----||:---A'---|-------:||----C---|
  ||---------||---------||---------|--------||--------|
  ||---------||---------||---------|--------||--------|



  >> Chorus                          <<
  ||2x                               ||
  ||---------------------------------||
  ||---------------------------------||
  ||:-1h3--------1---1h3------------:||
  ||---------1-------------------4---||
  ||------1--------------1---4-------||



  >> Verse 2                      <<
  ||2x        ||       ||2x       ||
  ||----------||-------||---------||
  ||----------||-------||---------||
  ||:---A----:||-- C---||:---A----||
  ||----------||-------||---------||
  ||----------||-------||---------||




  >>Break    ||3x                         ||2x       ||         ||3x       ||
  |---3--0---||--------------||-----------||---------||---------||---------||
  |----------||--1-----3-----||-1----4----||---------||--1--3---||---------||
  |----------||:----3-----3-:||---3-----3-||:---D---:||---------||:---A---:||
  |----------||--------------||-----------||---------||---------||---------||
  |----------||--------------||-----------||---------||---------||---------||
                |____D_____|


                    ||2x     ||       ||2x              <<
  |---3---|---------||-------||-------||-------|--------||
  |-------|---------||-------||-------||-------|--------||
  |-------|----C----||:--A--:||---C---||:--A---|---C---:||
  |-------|---------||-------||-------||-------|--------||
  |-------|---------||-------||-------||-------|--------||



  >> Chorus 2
  ||2x                               ||                <<
  ||---------------------------------||-----------------|
  ||---------------------------------||-----------------|
  ||:-1h3--------1---1h3------------:||---1h3-------1---|
  ||---------1-------------------4---||----------1------|
  ||------1--------------1---4-------||-------1---------|



  >> Bridge
  ||2x                         ||        ||2x       ||            <<
  ||---------------------------||--------||---------||------|------|
  ||---------------------------||--------||---------||------|------|
  ||-3--3---------------1--1--:||---1-1--||:---E---:||--1---|---C--|
  ||--------------4--4---------||--------||---------||------|------|
  ||--------4--4---------------||--------||---------||------|------|
    |____________E____________|


  >> final Chorus                    <<
  ||repeat and fade out              ||
  ||---------------------------------||
  ||---------------------------------||
  ||-1h3------------1h3----------1--:||
  ||------------4------------1-------||
  ||------1--4-----------1-----------||



tabbed by opsmainframe
maxsec@reed.edu
  development and support by
dmitry ivanov