rock
 
|tablatures   |lyrics   |discussion forums   |more tabs @ XGuitar.com

Pearl Jam tabs

Wishlist guitar tab

Author/Artist: Pearl Jam
Title: Wishlist
Album: Yield
Transcribed by: Evan Cowan
Email: ecowan@uclink4.berkeley.edu

(05/17/99)

-|------------------------------------------------------------------|---------
-|------------------------------------------------------------------|---------
-|-0-0-0-0-0-0-0-0-0-0-0-0-0-0-0-0-0-0-0-0-0-0-0-0-0-0-0-0-0-0-0-0--|---------
-|-2-2-0-0-2-2-0-0-2-2-0-0-2-2-0-0-3-3-3-3-3-3-3-3-2-2-0-0-2-2-0-0--|---------
-|-3-3-3-3-3-3-3-3-3-3-3-3-3-3-3-3-3-3-3-3-3-3-3-3-3-3-3-3-3-3-3-3--|---------
-|------------------------------------------------------------------|---------
 Intro, all palm muted, play five times                  (Riff 1)             

-|------------------------------------------------------------------|---------
-|------------------------------------------------------------------|---------
-|-0-0-0-0-0-0-0-0-0-0-0-0-0-0-0-0-0-0-0-0-0-0-0-0-0-0-0-0-0-0-0-0--|---------
-|-2-2-0-0-2-2-0-0-2-2-0-0-2-2-0-0-3-3-3-3-3-3-3-3-2-2-0-0-2-2-0-0--|---------
-|-3-3-3-3-3-3-3-3-3-3-3-3-3-3-3-3-3-3-3-3-3-3-3-3-3-3-3-3-3-3-3-3--|---------
-|------------------------------------------------------------------|---------
 6th time:p.m.--------------------------| let ring                            

-|-1-------0-------1-------0--------------1-----0-------3-----1---------|-----
-|-1-------1-------1-------1--------------1-----1-------3-----1---------|-----
-|-2-------0-------2-------0--------------2-----0-------0-----2---------|-----
-|-3-------2-------3-------2--3p2p0-0-2---3-----2-------0-----3----3----|-----
-|---------3---------------3------------0-------3-------2-----3----3----|-----
-|------------------------------------------------------3-----1----0h1--|-----
 Chorus, Guitar 1 (strum/arpeggiate the chords)                               

-|---------------------|-----8------8-----8---------------------8-----|-------
-|---------------8---8-|---8----8-------8-----8---8--8---8----8---8---|-------
-|-9-9-9-9-9-9-9---9---|-9--------9---------9---9------9----9-------9-|-------
-|---------------------|----------------------------------------------|-------
-|---------------------|----------------------------------------------|-------
-|---------------------|----------------------------------------------|-------
 Chorus, guitar 2                                                             

-|---------------------------------------8----0------0---0---0--|-------------
-|---8------8---------------------0h5h8----8-----5h6---6---6----|-------------
-|-9------9------9-------9--------------------------------------|-------------
-|-----10-----10------10---10-----------------------------------|-------------
-|-----------------10---------10--------------------------------|-------------
-|--------------------------------------------------------------|-------------
                                                                              

-|------------------------|----------------------|----------------------------
-|------------------------|----------------------|----------------------------
-|-0-5----5--5/7--7/9-9\5-|----------------------|----------------------------
-|------7-----------------|----------------------|----------------------------
-|------------------------|----------------------|----------------------------
-|------------------------|----------------------|----------------------------
 Interlude, guitar 3        Guitar 1 play riff 1 during interlude             

-|----------------|---------------------------------------------------------|-
-|----------------|-------13-13-13-----13-13-13------13-13-13------13-13-13-|-
-|----------------|---------------------------------------------------------|-
-|----------------|----14------------14-----------15------------14----------|-
-|----------------|-15------------15-----------15------------15-------------|-
-|----------------|---------------------------------------------------------|-
 Verse,G1-Riff1 2x  Verse, G2                                  With Fill 1    

-|-0------|---------------|----------------|-----------------|----------------
-|---1----|------13-13-13-|-------13-13-13-|-------13-13-13--|----------------
-|-----0--|---------------|----------------|-----------------|----------------
-|--------|----14---------|----15----------|----14-----------|----------------
-|--------|-15------------|-15-------------|-15--------------|----------------
-|--------|---------------|----------------|-----------------|----------------
 Fill 1                 2x                                                    

-|-----|-1---0---1---0---1---0-----3---1--------------|---------------|-------
-|-----|-1---1---1---1---1---1-----3---1--------------|---------------|-------
-|--9--|-2---0---2---0---2---0-----0---2--------------|---------------|-------
-|-----|-3---2---3---2---3---2-----0---3---3-----3----|-3-3-3-3-3-3-3-|-------
-|-----|-----3-------3-------3-----2---3---3-----3----|-3-3-3-3-3-3-3-|-------
-|-----|---------------------------3---1---0h1---0h1--|-1-1-1-1-1-1-1-|-------
    <   Chorus G1(strum/arpeggiate)                                           

-|-----8------------8--------10-12-10-----8--------------------8------|-------
-|---8---8---8---8------8-------------8-----8-------8------------8--6-|-------
-|-9-------9---9------9----9------------9---------9---9--0--9---------|-------
-|---------------------------------------------10---------------------|-------
-|--------------------------------------------------------------------|-------
-|--------------------------------------------------------------------|-------
 Chorus, Guitar 2                                                             

-|-----0---0---0-------0---0---0-----|-3------1------0-----|------------------
-|-5h6---6---6-----5h6---6---6-------|-3------1------1-----|------------------
-|---------------0-------------------|-0------2------0-----|------------------
-|-----------------------------------|-0------3------2-----|------------------
-|-----------------------------------|-2------3------3-----|------------------
-|-----------------------------------|-3------1------------|------------------
                                      Solo, Guitar 1(arpeggiate) 2x           

-|------------------------------------|--------------------------|------------
-|-8h10-13-12--13--10--12--8h10p8\5-5-|-8h10-13-12--15-13-12-10--|------------
-|------------------------------------|--------------------------|------------
-|------------------------------------|--------------------------|------------
-|------------------------------------|--------------------------|------------
-|------------------------------------|--------------------------|------------
 Guitar 2-Solo                                                                

-|-----------------|------------|--------------------------------|------------
-|-15-13-12-10\5-5-|-8h10-13-12-|-13---12---10---8---13---12---8-|------------
-|-----------------|------------|--------------------------------|------------
-|-----------------|------------|--------------------------------|------------
-|-----------------|------------|--------------------------------|------------
-|-----------------|------------|--------------------------------|------------
                                  <    <    <    <   <    <    <              

-|-----------------------------------------------------|----------------------
-|-----------------------------------------------------|----------------------
-|-4--4--4-4-4-2--2--2-2-2-5--5--5-5-5-5-5-5-5-5-5-5-5-|----------------------
-|-5--5--5-5-5-3--3--3-3-3-5--5--5-5-5-5-5-5-5-5-5-5-5-|----------------------
-|-5--5--5-5-5-3--3--3-3-3-3--3--3-3-3-3-3-3-3-3-3-3-3-|----------------------
-|-3--3--3-3-3-1--1--1-1-1-----------------------------|----------------------
  Solo, Guitar 3                           Play 2x                            

-|--------------------------|-------------------------------------------------
-|--------------------------|-------------------------------------------------
-|-4--4--4-4-4-2------------|-------------------------------------------------
-|-5--5--5-5-5-3---3----3---|-------------------------------------------------
-|-5--5--5-5-5-3---3----3---|-------------------------------------------------
-|-3--3--3-3-3-1---0h1--0h1-|-------------------------------------------------
                                                                              

-|---------------------|-----0------|-1--0--1--0--------------1-----3--1-|----
-|---------------------|-1-----1----|-1--1--1--1--------------1--1--3--1-|----
-|---------------------|---0--------|-2--0--2--0--------------2--0--0--2-|----
-|---------------------|------------|-3--2--3--2-3p2p0-0-2----3--2--0--3-|----
-|---------------------|------------|----3-----3-----------0-----3--2--3-|----
-|---------------------|------------|-------------------------------3--1-|----
 Verse, g.1.-riff 1 2x  Pre-ch. fill  Chorus, g.1.                            

-|-------------|-----8-----------8-------|-----0---0---0---0---0---------0--|-
-|-------------|---8---8---8---8---8---8-|-5h6---6---6---6---6---6---5h6---6|-
-|-----------x-|-9-------9---9-------9---|-------------------------0--------|-
-|-3----3----x-|-------------------------|----------------------------------|-
-|-3----3----x-|-------------------------|----------------------------------|-
-|-0h1--0h1----|-------------------------|----------------------------------|-
                Chorus, g.2        3x                                         

-|-----------------------------------------------------------------|----------
-|-----------------------------------------------------------------|----------
-|-9--7--9--7--9--7-\5-/7-/10-\9--7--9--7--9--7--9--7-\5-/7-/10-\9-|----------
-|-----------------------------------------------------------------|----------
-|-----------------------------------------------------------------|----------
-|-----------------------------------------------------------------|----------
 Outro  p.h.      w/E.bow                                                     

-|----------------|-1--0--1--0--1--0------------|-----------------------------
-|----------------|-1--1--1--1--1--1------------|-----------------------------
-|----------------|-2--0--2--0--2--0------------|-----------------------------
-|----------------|-3--2--3--2--3--2------------|-----------------------------
-|----------------|----3-----3-----3------------|-----------------------------
-|----------------|-----------------------------|-----------------------------
  G.2.--Riff 1 2x  End-arpeggiate and fade out                                

  development and support by
dmitry ivanov