rock
 
|tablatures   |lyrics   |discussion forums   |more tabs @ XGuitar.com

Pearl Jam tabs

Who You Are guitar tab

Author/Artist: Pearl Jam
Title: Who You Are
Album: No Code
Transcribed by: Chris Wilson (rhythm) and Evan Cowan (solo)
Email: yokle@zip.com.au and ecowan@uclink4.berkeley.edu

G1 is an electric on moderate distortion, G2 and G3 are both
acoustics and G4 is a citar.

-|-0-0-0-0-|---0---|--0---0---0---0---0---0-|-0---0---0---0---0---0-|---------
-|---------|---9---|--9---7---5---5---7---9-|-5---4---0---5---4---5-|---------
-|---------|-------|------------------------|-----------------------|---------
-|---------|-------|------------------------|-----------------------|---------
-|---------|-------|------------------------|-----------------------|---------
-|---------|-------|------------------------|-----------------------|---------
 Intro       Verse                           Pre-Chorus                       

-|---0---0---0---0---0------0---0---0---0---0---0---0---0---0---0---0---0-----
-|-2---2---2---2---2---2--4---4---4---4---4---5---5---5---5---5---5---5---5---
-|----------------------------------------------------------------------------
-|----------------------------------------------------------------------------
-|----------------------------------------------------------------------------
-|----------------------------------------------------------------------------
  Chorus                                                                      

-0---0-|--0---0---0--0--0--0--0---0---0--0--0--0--0--|--0-0-0-0-0-0-0-0-0-0---
---5---|--5---7---9--9--9--9--9---7---5--5--5--5--5--|--5-4-5-4-2-4-2-0-2-4---
-------|---------------------------------------------|------------------------
-------|---------------------------------------------|------------------------
-------|---------------------------------------------|------------------------
-------|---------------------------------------------|------------------------
         Verse         (turn it into a bit of a strum) Solo  G2               

-0-0-0-0-0--0-0-0-0-0-0-0-0-0-0-0-0-0-0-0--|--0-0-0--0-0-0--0-0-0--0-0-0--0---
-5-4-5-4-5--5-4-5-7-5-4-2-0-2-4-5-4-5-4-5--|--5-4-5-/9-7-5--5-4-5-/7-5-4--5---
-------------------------------------------|----------------------------------
-------------------------------------------|----------------------------------
-------------------------------------------|----------------------------------
-------------------------------------------|----------------------------------
                                             G3 comes in here and doubles G2  

-0--0--0-0--0-0--0--0--0--0-0-0--0-0--|----------0-----------|----------------
-4--4--5-4--5-4--5-/7--5--5-4-5-/7-5--|----------5-----------|----------------
--------------------------------------|----------------------|----------------
--------------------------------------|----------------------|----------------
--------------------------------------|----------------------|----------------
--------------------------------------|----------------------|----------------
                                        G4    (strum the e's)                 

-|-----------5------------|------------------------------------------|--------
-|-----------0------------|------------------------------------------|--------
-|------------------------|------------------------------------------|--------
-|------------------------|--2--4--6--7--9--9/11-9--7--6--7--6--4--2-|--------
-|------------------------|------------------------------------------|--------
-|------------------------|--0--2--4--5--7--7/9--7--5--4--5--4--2--0-|--------
  Chorus G1(strum the e's)  Bridge G2 just the E first time and then all 3x   

-|--------------0-|-----------------------------------------------------------
-|--------------0-|-----------------------------------------------------------
-|-x-x-x-x-x-x--1-|-----------------------------------------------------------
-|-x-x-x-x-x-x--2-|-2--4--6--7--9--9-11-9--7--6--7--6---2--4--6--7--9--9-11---
-|-x-x-x-x-x-x--2-|-----------------------------------------------------------
-|-x-x-x-x-x-x--0-|-0--2--4--5--7--7/9--7--5--4--5--4---0--2--4--5--7--7/9----
  G1 (listen to Cd) G2                                                        

---------------------|--0------0----0----0----0----0----0--|--0--0--0---0--0--
---------------------|--5------5----7----9----9----7----5--|--5--4--0---5--4--
---------------------|-------------------------------------|--2--2--2---2--2--
-9--7--6--7--6--4--2-|-------------------------------------|--0--0--0---0--0--
---------------------|-------------------------------------|------------------
-7--5--4--5--4--2--0-|-------------------------------------|------------------
                       Outro G1                              G2               

--------0--|-----------0------------|-----------------------------------------
------5----|-----------5------------|-----------------------------------------
----2------|------------------------|-----------------------------------------
--0--------|------------------------|-----------------------------------------
-----------|------------------------|-----------------------------------------
-----------|------------------------|-----------------------------------------
             G4 (fade out with e's)                                           


  development and support by
dmitry ivanov