rock
 
|tablatures   |lyrics   |discussion forums   |more tabs @ XGuitar.com

Pearl Jam tabs

Whipping bass tab

the following song are by Pearl Jam off "Vitology". All songs tabbed by Zeekford


Whipping


intro          4x
G|-------------------|
D|-------------------|
A|-0-0--10--10-10-10-|
E|-------------------|

verse
G|----------------------------------12-14-|
D|----------------------------10-12-------|
A|-0-0-0-10-10-10-12-12-10-12-------------|
E|----------------------------------------|

the basic progression is AGAG with improvisation on the last G.  I gave one
variation, MANY others are used

1st Chorus
G|---------------|------------------------------------------|
D|--------------*|-16-14-16-14------------------------------|
A|-7--7--7--7-7-*|-------------16-14-16--16-14-16-14--------|
E|---------------|-----------------------------------16-14\-|

Interlude
G|----------|----------------------|
D|---------*|-16-14-16-14----------|
A|-0-0-0-0-*|-------------16-14----|
E|----------|-------------------16\|

Use AGAG progression until end
================================================================================
there U go. That's all of Vitology.  I hope U like it. Send Your comments to:
zeekford@capecod.net
  development and support by
dmitry ivanov