rock
 
|tablatures   |lyrics   |discussion forums   |more tabs @ XGuitar.com

Pearl Jam tabs

Tremor Christ bass tab

Tremor Christ (from the album vitalogy) 
Pearl Jam	

Ok well basically Zeekfords version was crap. So i tabbed this myself 
This may not be perfect but its a damn site closer. 

Intro
G-----------------------------------------------------
D-14-13-11-9----------14-13-14-16-14-13-11-9----------
A-------------11h12p11------------------------11h12p11
E-----------------------------------------------------

Verse
G------------------------
D-9-7-9-7/---------------
A---------11h12p11-9-7-(6)
E------------------------
Sometimes theres no need for the hammering on so you just start from 12 instead of hamerring on from
11 to 12

Little secrets, tremors quake(chorus) (this is the same as the outro but i dont think
the bass plays it)
G---------------
D---------------
A-9-9-9-11-11-11
E---------------

Pre-verse
G----------------------------------------------------------
D-9-7-9-7------------9-7-9-7------------9-7-9-7/18\16/18\16
A--------(12)-11-9-7---------12-14-12-7--------------------
E----------------------------------------------------------

The take my time believe in lies, its divine bit goes just like the verse,
then the bass drops out for the outro, there may be some untabbed variations,
Im sorry about that but jeff is extremely good

Anyway any comments send them to grunger@ntlworld.com 
Thank you,
Adam
  development and support by
dmitry ivanov