rock
 
|tablatures   |lyrics   |discussion forums   |more tabs @ XGuitar.com

Pearl Jam tabs

Thumbing My Way guitar tab

Pearl Jam - Thumbing My Way
Revision: Ryan De Backere
Email: donkeyryan@msn.com
i just have a revision to micheal bradleys tab for this one ..
i was watching the madison square gardens concert and im pretty sure the
chorus is like this .. sweet lick

Intro
--2--2----------3--3-- --2--2----------3--3-----
--3--3----------3--3-- --3--3----------3--3--2--
--2--2--2-------0--0-- --2--2--2-------0--0--2--
-----4--4-2-0---0--2-- -----4--4-2-0---0--2--2--
--------------2-2----- --------------2-2--------
---------------------- -------------------------

Verse
--2--2--3--3----- --2--2----------3--3-----
--3--3--3--3--2-- --3--3----------3--3--2--
--2--2--0--0--2-- --2--2--2-------0--0--2--
-----4--0--2--2-- -----4--4-2-0---0--2--2--
--------2-------- --------------2-2--------

Chorus
(listen to the song for the strumming pattern)
            G    C   C/G   Am   G    G
--3----7----3----0----0----0----3----3------------------
--3----3----3----1----1----1----3----3------------------
--4----4----0----0----0----2----0----0------------------
--5----5----0----2----2----2----0----0------------------
------------2----3----3----0----2----2------------------
------------3---------3---------3----3------------------
I can't be free with what's locked inside of me   If there was a key
All the rusted signs....

Bridge
(listen to the song for the strumming pattern)
---8-----------------------------------------------------------------
---5--------------------------5-------------------------5-5-5--------
---5--------------------------5-------------------------5-4h5--------
---5--------------------------5-------------------------5-5-5--------
---0-----------------------------------------------------------------
---------------------------------------------------------------------
I let go of a road thinking that's what held my back

-1--------------------------------------1----------------------------
-3--------------------------------------1----------------------------
-3--------------------------------------2----------------------------
-3--------------------------------------3----------------------------
-1--------------------------------------3----------------------------
----------------------------------------1----------------------------
And in time I've realized it's now wrapped around my neck....

Originally Submitted by: Michael Bradley
e-mail: mb53355&appstate.edu
"I can't take credit for this tab, i found it on the internet. Its such
a great song to hear and play, i just wanted to share it with the rest
of you.  Thanks to whoever tabbed it."
  development and support by
dmitry ivanov