rock
 
|tablatures   |lyrics   |discussion forums   |more tabs @ XGuitar.com

Pearl Jam tabs

Thin Air bass tab

Pearl Jam - Thin air
Tabbed by Mark Linwood (rlinwood@uq.net.au)

standrd tunning
Verse:
|-------------|--------------|-------------|--------------|
|-------------|--------------|-------------|--------------|
|-7-7---------|-3--3---------|-7--7--------|-7--7---------|
|-----7-7--7--|------3--3--3-|------7-7-7--|------7-7---7-| x3

Chorus:
|-------------|---------------|
|-------------|---------------|
|3------------|5--------------|
|-------------|-------5-------|

Verse:
|-------------|--------------|-------------|--------------|
|-------------|--------------|-------------|--------------|
|-7-7---------|-3--3---------|-7--7--------|-7--7---------|
|-----7-7--7--|------3--3--3-|------7-7-7--|------7-7---7-| x3

Chorus:
|-------------|---------------|-----------------|-----------------|
|-------------|---------------|-----------------|-----------------|
|3------------|5--------------|-----------------|-----------------|
|-------------|-------5-------|-0-0-0-0-0-0-0-0-|-2-2-2-2-3-3-5-5-|

|-------------|---------------|-----------------|-----------------|
|-------------|---------------|-----------------|-----------------|
|3------------|5--------------|-----------------|-----------------|
|-------------|-------5-------|-0-0-0-0-0-0-0-0-|-0-0-0-0---------|

|-------------|-----------------|
|-------------|-----------------|
|-7-7-3-3-----|-5---5-----------|
|---------3---|-------5---5-5-5-| x2


Bridge:
|-----------------|
|-----------------|
|-2-2-2-2-2-2-2-2-|
|-----------------|keep playing for a while then

|-----------------|-----------------|
|-----------------|-----------------|
|-----------------|-2-2-2-2-2-2-2-2-|
|-2-2-2-2-2-2-2-2-|-----------------|

|-------------|---------------|-----------------|
|-------------|---------------|-----------------|
|-------------|---------------|-2-2-3-3-4-4-5-5-|
|3------------|5------0-------|-----------------|
  development and support by
dmitry ivanov