rock
 
|tablatures   |lyrics   |discussion forums   |more tabs @ XGuitar.com

Pearl Jam tabs

Stupid Mop guitar tab

Author/Artist: Pearl Jam
Title: Hey Foxymophandlemama That's Me (Stupid Mop)
Album: Vitalogy
Transcribed by: Evan Cowan
Email: ecowan@uclink4.berkeley.edu

This is a really basic tab because frankly this song
doesn't deserve too much of my time
I've added times as a referance point

-|--------------------------------------------------------------------------|-
-|--------------------------------------------------------------------------|-
-|--------------------------------------------------------------------------|-
-|--------------------------------------------------------------------------|-
-|-7-7-7-7-7-7-7-7-7-7-7-7-7-7-7-7-7-7-7-7-7-7------------------------------|-
-|-0-0-0-0-0-0-0-0-0-0-0-0-0-0-0-0-0-0-0-0-0-0------------------------------|-
 G1 0:00                                     let ring                         

-|--------------------------------------------------------------------------|-
-|--------------------------------------------------------------------------|-
-|--------------------------------------------------------------------------|-
-|--7-5-7-5---7-5-7-5-7-9-5---7-5-7-5-7-5-7-*vvvvvvvvvvvvvvvvvvvv-----------|-
-|--------------------------------------------------------------------------|-
-|--------------------------------------------------------------------------|-
 G2                                         *feedback                         

-|---------------------------------------------------------|------------------
-|---------------------------------------------------------|------------------
-|---------------------------------------------------------|------------------
-|---------------------------------------------------------|------------------
-|---------------------------------------------------------|------------------
-|---------------------------------------------------------|------------------
 Both guitars feedback with volume swells and tremolo bar for awhile          

-|-------------------------------------------------------------------------|--
-|-9---9vvvvv-9vvvv--9vv-9vv-9vv-9vv-12-9-9vvvv-12vv-9vvv-9vvv-9v-10v-9v---|--
-|-------------------------------------------------------------------------|--
-|-------------------------------------------------------------------------|--
-|-------------------------------------------------------------------------|--
-|-------------------------------------------------------------------------|--
 G2's feedback melody, starts at about 0:25                                   

-|--------------------------------------------------------|-------------------
-|-9-10-9-8-9-10-9-8-9-10-9-8-9-10-9-8-9-8-10-9-10-9-8-9--|-------------------
-|--------------------------------------------------------|-------------------
-|--------------------------------------------------------|-------------------
-|--------------------------------------------------------|-------------------
-|--------------------------------------------------------|-------------------
 G2 feedback continued (1:09)                                                 

-|---------------------------------------------------------------------|------
-|---------------------------------------------------------------------|------
-|-9-----10-9-------9-----10-9-------9-----10-9-------9-----10-9-------|------
-|---9-9------9-9-9---9-9------9-9-9---9-9------9-9-9---9-9------9-9-9-|------
-|---------------------------------------------------------------------|------
-|---------------------------------------------------------------------|------
 About 1:24 G1 plays this a bunch while G2 continues to feedback              

-|----------------------------|---------------------------------------|-------
-|----------------------------|---------------------------------------|-------
-|-9-9-9-9-9-9-9-9-9-9-10-b11-|---------------------------------------|-------
-|----------------------------|---------------------------------------|-------
-|----------------------------|---------------------------------------|-------
-|----------------------------|---------------------------------------|-------
 G1-2:04                       More random feedback from both guitars         

-|------------------------------|---------------------------------------------
-|------------------------------|---------------------------------------------
-|------------------------------|---------------------------------------------
-|------------------------------|---------------------------------------------
-|------------------------------|---------------------------------------------
-|------------------------------|---------------------------------------------
  More noise and feedback......                                               

-|-----------------------------------------------------------------------|----
-|-----------------------------------------------------------------------|----
-|-----------------------------------------------------------------------|----
-|-5-7-5-0-9p0-9p0-9p0-5-7-5p4h5-2-0-4p0-2p0-----4p2p0-5p4p0-7p5p0-9p7p0-|----
-|-------------------------------------------5p0-------------------------|----
-|-----------------------------------------------------------------------|----
 At about 4:30 G2 fiddles around with these notes for awhile                  

-|-------------------------------------------------------------------|--------
-|-------------------------------------------------------------------|--------
-|-------------------------------------------------------------------|--------
-|-0-4p0-9p7p0-9p7p0-9p7p0-9p7p0-11-0-11-9-7-5-9-7-5-4-2-4-7-5-4-2-0-|--------
-|-------------------------------------------------------------------|--------
-|-------------------------------------------------------------------|--------
 This is not exact...                                                         

-|-----------------------------------------------------------------|----------
-|-----------------------------------------------------------------|----------
-|-----------------------------------------------------------------|----------
-|-0h2h4-5-7-0h5h7-0h7h9-9-7-9p0-7p0-4-2-0-2-9p7p0-7p5p0-9p7p0-2p0-|----------
-|-----------------------------------------------------------------|----------
-|-----------------------------------------------------------------|----------
                                                                              

-|------------------------------------------------------------------|---------
-|------------------------------------------------------------------|---------
-|------------------------------------------------------------------|---------
-|-9-7-5-0-4p0-7p5p0-9p7p0-7p5p0-9p7p0-7p5p0-9p7p0-10-9-7-5-7p5p0---|---------
-|------------------------------------------------------------------|---------
-|------------------------------------------------------------------|---------
                                                        Continue randomly...  

-|---------------------------------------------------------------|------------
-|---------------------------------------------------------------|------------
-|-----------8-8-8-8-8-8-8-8-8-8-8-8-8-8-------------------------|------------
-|-9-7-9vv---8-8-8-8-8-8-8-8-8-8-8-8-8-8-------------------------|------------
-|---------------------------------------------------------------|------------
-|---------------------------------------------------------------|------------
 About 5:33 G2 does this                etc...fade into noises                

-|----------------------------------------------------------|-----------------
-|----------------------------------------------------------|-----------------
-|----------------------------------------------------------|-----------------
-|----------------------------------------------------------|-----------------
-|----------------------------------------------------------|-----------------
-|----------------------------------------------------------|-----------------
 More random noises/feedback for awhile.............                          

-|---------------------------------------||-----------------------------------
-|--17-vvvvvvvvvvvvvvvvv-----------------||-----------------------------------
-|---------------------------------------||-----------------------------------
-|---------------------------------------||-----------------------------------
-|---------------------------------------||-----------------------------------
-|---------------------------------------||-----------------------------------
 Feedback at this pitch ends the song                                         

  development and support by
dmitry ivanov