rock
 
|tablatures   |lyrics   |discussion forums   |more tabs @ XGuitar.com

Pearl Jam tabs

Spin The Black Circle bass tab

From: STAFF1209@aol.com

Spin The Black Circle by Pearl Jam
this is a great song

intro          6x's
g-------------3----
d-3-2-1-0---------
a-------------------
e-------------------

verse                                        repeat quickly and many x's
g---------------------------------------------------------
d---------------------------------------------------------
a---2-2-2-2----2-2-2-2-----2-2-2-2----0-0-0---
e---------------------------------------------------------
verse 2  smae rythm as above
g----------------------------------------------------
d------------------------------------------------------
a--5-5-5-5----5-5-5-5----5-5-5-5---3-3-3---
e----------------------------------------------------

later on during  "youre some one" part
         8x's
g-----------|---------------|-----------|--------------------------|
d-----------|--------------|------------|---------------------------|
a-3-3-3-3-|-2-2-2-2--|--5-5-5-5-|-7-7-7-7-|-5-5-5-5-|
e-------------|-------------|------------|-------------------------|

thats it  fast but easy
by staff 1209@aol.com
real  scott broschart
  development and support by
dmitry ivanov