rock
 
|tablatures   |lyrics   |discussion forums   |more tabs @ XGuitar.com

Pearl Jam tabs

Smile guitar tab

Author/Artist: Pearl Jam
Title:  : )
Album: No Code
Transcribed by: Chris Wilson and Evan Cowan (Solo and Fills)
Email: yokel@zip.com.au

(07/06/99)


-|-------------------------------------------------------------|--------------
-|-------------------------------------------------------------|--------------
-|--------------x-x--2-x-x-----x-x-4-x-x-4---x-x-x-2-2---------|--------------
-|--2--x-x------x-x--2-x-x-0h2-x-x-4-x-x-4---x-x-x-2-2--0h2p0--|--------------
-|--2--x-x--0h2-x-x--0-x-x-0---x-x-2-x-x-0h2-x-x-x-0-0---------|--------------
-|--0--x-x--0--------------------------------------------------|--------------
  Intro Stone Funky Rhythm : Improvise With The Strumming Pattern. x4         

-|------------|---------------|-------------------------------|---------------
-|------------|--------15--\--|------------------------15--\--|---------------
-|------------|--14h16--------|--------------/---14h16--------|---------------
-|--------12--|---------------|--------12---/-----------------|---------------
-|--12h14-----|---------------|--12h14------------------------|---------------
-|------------|---------------|-------------------------------|---------------
  Mike     1st Time                         2nd Time                          

-|-------------------------------------------------------------|--------------
-|-------------------------------------------------------------|--------------
-|--------------x-x--2-x-x-----x-x-4-x-x-4---x-x-x-2-2---------|--------------
-|--2--x-x------x-x--2-x-x-0h2-x-x-4-x-x-4---x-x-x-2-2--0h2p0--|--------------
-|--2--x-x--0h2-x-x--0-x-x-2---x-x-2-x-x-0h2-x-x-x-0-0---------|--------------
-|--0--x-x--0--------------------------------------------------|--------------
  Verse Stone              With Fill 1                                        

-|-------------------------------------------------------------|--------------
-|-------------------------------------------------------------|--------------
-|--------------x-x--2-x-x-----x-x-4-x-x-4---x-x-x-2-2---------|--------------
-|--2--x-x------x-x--2-x-x-0h2-x-x-4-x-x-4---x-x-x-2-2--0h2p0--|--------------
-|--2--x-x--0h2-x-x--0-x-x-2---x-x-2-x-x-0h2-x-x-x-0-0---------|--------------
-|--0--x-x--0--------------------------------------------------|--------------
                          With Fill 1                                         

-|-------------------------------------------------------------|--------------
-|-------------------------------------------------------------|--------------
-|-------------x-x--2--x-x-----x-x-4-x-x-4---x-x-x-2-2---------|--------------
-|--2-x-x------x-x--2--x-x-0h2-x-x-4-x-x-4---x-x-x-2-2--0h2p0--|--------------
-|--2-x-x--0h2-x-x--0--x-x-2---x-x-2-x-x-0h2-x-x-x-0-0---------|--------------
-|--0-x-x--0---------------------------------------------------|--------------
                          With Fill 1                                         

-|-------------------------------------------------------------|--------------
-|-------------------------------------------------------------|--------------
-|-------------x-x--2--x-x-----x-x-4-x-x-4---x-x-x-2-2---------|--------------
-|--2-x-x------x-x--2--x-x-0h2-x-x-4-x-x-4---x-x-x-2-2--0h2p0--|--------------
-|--2-x-x--0h2-x-x--0--x-x-2---x-x-2-x-x-0h2-x-x-x-0-0---------|--------------
-|--0-x-x--2---------------------------------------------------|--------------
                          With Fill 1                                         

-|-------------------------------------------------------------|--------------
-|-------------------------------------------------------------|--------------
-|-------------x-x--2--x-x-----x-x-4-x-x-4---x-x-x-2-2---------|--------------
-|--2-x-x------x-x--2--x-x-0h2-x-x-4-x-x-4---x-x-x-2-2--0h2p0--|--------------
-|--2-x-x--0h2-x-x--0--x-x-2---x-x-2-x-x-0h2-x-x-x-0-0---------|--------------
-|--0-x-x--2---------------------------------------------------|--------------
   Hamonic Solo-----------------------------------------------|               

-|-------------------------------------------------------------|--------------
-|-------------------------------------------------------------|--------------
-|-------------x-x--2--x-x-----x-x-4-x-x-4---x-x-x-2-2---------|--------------
-|--2-x-x------x-x--2--x-x-0h2-x-x-4-x-x-4---x-x-x-2-2--0h2p0--|--------------
-|--2-x-x--0h2-x-x--0--x-x-2---x-x-2-x-x-0h2-x-x-x-0-0---------|--------------
-|--0-x-x--2---------------------------------------------------|--------------
  |----------------------------------------------------------|                

-|-------------------------------------------------------------|--------------
-|-------------------------------------------------------------|--------------
-|-------------x-x--2--x-x-----x-x-4-x-x-4---x-x-x-2-2---------|--------------
-|--2-x-x------x-x--2--x-x-0h2-x-x-4-x-x-4---x-x-x-2-2--0h2p0--|--------------
-|--2-x-x--0h2-x-x--0--x-x-2---x-x-2-x-x-0h2-x-x-x-0-0---------|--------------
-|--0-x-x--2---------------------------------------------------|--------------
                                             With Fill 2                      

-|-------------------------------------------------------------|--------------
-|-------------------------------------------------------------|--------------
-|-------------x-x--2--x-x-----x-x-4-x-x-4---x-x-x-2-2---------|--------------
-|--2-x-x------x-x--2--x-x-0h2-x-x-4-x-x-4---x-x-x-2-2--0h2p0--|--------------
-|--2-x-x--0h2-x-x--0--x-x-2---x-x-2-x-x-0h2-x-x-x-0-0---------|--------------
-|--0-x-x--2---------------------------------------------------|--------------
                                             With Fill 3                      

-|-------------------------------------------------------------|--------------
-|-------------------------------------------------------------|--------------
-|-------------x-x--2--x-x-----x-x-4-x-x-4---x-x-x-2-2---------|--------------
-|--2-x-x------x-x--2--x-x-0h2-x-x-4-x-x-4---x-x-x-2-2--0h2p0--|--------------
-|--2-x-x--0h2-x-x--0--x-x-2---x-x-2-x-x-0h2-x-x-x-0-0---------|--------------
-|--0-x-x--2---------------------------------------------------|--------------
                                                                              

-|-------------------------------------------|--------------------------------
-|-------------------------------------------|--------------------------------
-|------------x-x--2--x-x-----x-x-4-x-x-4-4--|--------------------------------
-|--2-x-x-----x-x--2--x-x-0h2-x-x-4-x-x-4-4--|--------------------------------
-|--2-x-x-0h2-x-x--0--x-x-2---x-x-2-x-x-2-2--|--------------------------------
-|--0-x-x-2----------------------------------|--------------------------------
                               With Fill 4                                    

-|-------------------------------------------------|--------------------------
-|-------------------------------------------------|--------------------------
-|-------------------------------------------------|--------------------------
-|----------------2-x-x-0h2-x-x-4-x-x-4-x-x-2-2-2--|--------------------------
-|--2-x-x-0h2-x-x----------------------------------|--------------------------
-|-------------------------------------------------|--------------------------
   Mike During The Verse After The Harmonic Solo Except When Playing Fills    

-|---------|--------------------------------|-------------------|-------------
-|---------|--------------------------------|-------------------|-------------
-|---------|--------------------------------|-------------------|-------------
-|---------|-----x-x-x-x-x------------------|-------------------|-------------
-|---12\---|-----x-x-x-x-x------------------|--5h7-5------------|-------------
-|---------|-----x-x-x-x-x------------------|--------7-5\3p0-0--|-------------
  Fill 1     Mike During The Harmonica Solo    Fill 2                         

-|---------------------------|-----------|------------------------------------
-|---------------------------|-----------|------------------------------------
-|---------------------------|-----------|------------------------------------
-|--12-14-12-12h14p12--------|-----------|------------------------------------
-|--------------------10-----|---/14-----|------------------------------------
-|-----------------------12--|-----------|------------------------------------
   Fill 3                        Fill 4                                       

-|--3--3--3--3--3--3--3--3--|-------------------------------------------------
-|--3--3--3--3--3--3--3--3--|-------------------------------------------------
-|--0--0--0--0--0--0--0--0--|-------------------------------------------------
-|--0--0--2--2--0--0--2--2--|-------------------------------------------------
-|--2--2--3--3--2--2--3--3--|-------------------------------------------------
-|--3--3--------------------|-------------------------------------------------
   Chorus Stone      x2                                                       

-|--------------------------|----------------------|--------------------------
-|--------------------------|----------------------|--------------------------
-|--------------------------|----------------------|--------------------------
-|--------------------------|----------------------|--------------------------
-|--10--7--5h7-5--5h7-/-10--|--10--7--5h7-5--/-10--|--------------------------
-|--------------------------|----------------------|--------------------------
   Mike                                                                       

-|---------------------------|------------------|-----------------------------
-|---------------------------|------------------|-----------------------------
-|---------------------------|------------------|-----------------------------
-|---------------------------|------------------|-----------------------------
-|--10--7--5h7--5--5h7-/-10--|--10--7--5--5--5--|-----------------------------
-|---------------------------|------------------|-----------------------------
                                                                              

-|-----------------------------------------|----------------------------------
-|-----------------------------------------|----------------------------------
-|-----------------------------------------|----------------------------------
-|--14-14-14-14-14-14-14-14-14-14/--x-x-x--|----------------------------------
-|----------------------------------x-x-x--|----------------------------------
-|----------------------------------x-x-x--|----------------------------------
  Solo Mike               2x                                                  

-|------------------------------|-------------------------------|-------------
-|------------------------------|-------------------------------|-------------
-|------------------------------|-------------------------------|-------------
-|--------12-14-12-------12-14--|--------12-14-12-------12---/--|-------------
-|--12h14----------12h14--------|--12h14----------12h14-----/---|-------------
-|------------------------------|-------------------------------|-------------
                   3x                                                         

-|-------------------------------------------------|---------|----------------
-|--17--15------17--15------------17--15-----------|---------|----------------
-|-------------------------------------------------|---------|----------------
-|----------14---------------12----------------12--|--12-12--|----------------
-|---------------------12h14-------------12h14-----|---------|----------------
-|-------------------------------------------------|---------|----------------
                                                                              

-|--3--3--3--3--3--3--3--3--|-------------------------------------------------
-|--3--3--3--3--3--3--3--3--|-------------------------------------------------
-|--0--0--0--0--0--0--0--0--|-------------------------------------------------
-|--0--0--2--2--0--0--2--2--|-------------------------------------------------
-|--2--2--3--3--2--2--3--3--|-------------------------------------------------
-|--3--3--------x--x--------|-------------------------------------------------
  Chorus Stone          2x                                                    

-|---------------------------|---------------------|--------------------------
-|---------------------------|---------------------|--------------------------
-|---------------------------|---------------------|--------------------------
-|---------------------------|---------------------|--------------------------
-|--10--7--5h7-5--5h7--/-10--|--10--7--5h7-7-/-10--|--------------------------
-|---------------------------|---------------------|--------------------------
  Mike                                                                        

-|-----------------------|-----------------------------|----------------------
-|-----------------------|-----------------------------|----------------------
-|-----------------------|-----------------------------|----------------------
-|-----------------------|-----------------------------|----------------------
-|--10-7-5h7-5-5h7-/-10--|--10--10-12-10-12-12/14-/17--|----------------------
-|-----------------------|-----------------------------|----------------------
                                                                              

-|--2--|----------------------------------------------------------------------
-|--3--|----------------------------------------------------------------------
-|--2--|----------------------------------------------------------------------
-|--0--|----------------------------------------------------------------------
-|-----|----------------------------------------------------------------------
-|-----|----------------------------------------------------------------------
   Bridge Stone Strum                                                         

-|---------------------|---------------------------|--------------------------
-|---------------------|---------------------------|--------------------------
-|------------/11--9---|---------------------------|--------------------------
-|--------12---/9--7---|--------12-------12--------|--------------------------
-|--12h14--------------|--12h14----12h14----14-12--|--------------------------
-|---------------------|---------------------------|--------------------------
  Mikey                                                                       

-|-------------------------------------------------------------|--------------
-|-------------------------------------------------------------|--------------
-|-------------x-x--2-x-x-----x-x--4-x-x-4---x-x-x-2-2---------|--------------
-|--2-x-x------x-x--2-x-x-0h2-x-x--4-x-x-4---x-x-x-2-2--0h2p0--|--------------
-|--2-x-x--0h2-x-x--0-x-x-0---x-x--2-x-x-0h2-x-x-x-0-0---------|--------------
-|--0-x-x--0---------------------------------------------------|--------------
   Outro Stone                                                                

-|---------------------|-------------------|-------------------|--------------
-|---------------------|-------------------|-------------------|--------------
-|---------------------|-------------------|-------------------|--------------
-|---------------------|-------------------|-------------------|--------------
-|------5-7-5-----5-7--|------5-7-5-----5--|------5-7-5-----5--|--------------
-|--5h7-------5h7------|--5h7-------5h7----|--5h7-------5h7----|--------------
   Mike Repeat Till End                                                       

-|---------------------|---------------------|---------------------|----------
-|---------------------|---------------------|---------------------|----------
-|---------------------|---------------------|---------------------|----------
-|---------------------|---------------------|---------------------|----------
-|------5-7-5-----5-7--|------5-7-5-----5-7--|------5-7-5-----5-7--|----------
-|--5h7-------5h7------|--5h7-------5h7------|--5h7-------5h7------|----------
                                                                              

-|---------------------|-------------------|---------------|------------------
-|---------------------|-------------------|---------------|------------------
-|---------------------|-------------------|---------------|------------------
-|---------------------|-------------------|---------------|------------------
-|------5-7-5-----5-7--|------5-7-5-----5--|------5-7vvvv--|------------------
-|--5h7-------5h7------|--5h7-------5h7----|--5h7----------|------------------
                                                                              

-|-------------------|-------------------------------------|------------------
-|-------------------|-------------------------------------|------------------
-|-------------------|---------------2-------4-------2-----|------------------
-|-------------------|------2------2---2---4---4---2---2---|------------------
-|--5h7-5h7-5h7-5----|----2---2--0-------2-------0---------|------------------
-|----------------7--|--0----------------------------------|------------------
                        Gtr. 3    Repeat Till End            Fade......       

  development and support by
dmitry ivanov