rock
 
|tablatures   |lyrics   |discussion forums   |more tabs @ XGuitar.com

Pearl Jam tabs

Save You guitar tab

INTRO
|----------------------------------------------|
|----------------------------------------------|
|---------15-15--14-14-14----------------------|
|--14-14-------------------10-10-10-10-10-10---|   x4
|--14-14--13-13--12-12-12--10-10-10-10-10-10---|
|--12-12-------------------8--8--8--8--8--8----|


VERSE
|----------------------------------------------|------------------|
|----------------------------------------------|------------------|
|---------15-15--14-14-14----------------------|------------------|
|--14-14-------------------10-10-10-10-10-10---|--12-12-12-12-12--|
|--14-14--13-13--12-12-12--10-10-10-10-10-10---|--12-12-12-12-12--|
|--12-12-------------------8--8--8--8--8--8----|--10-10-10-10-10--|

                                               |__________________|
                                                        ^
                                                        |_ play it quickly just before the chorus

CHORUS
|---------------------------------------------------------------------------------------------------|
|---------------------------------------------------------------------------------------------------|
|--9-9-9-9-9---12-12-12-12-12-12-12-12---14-14-14-14-14-14----17-17-17-17-17-17--19-19-19-19-19-19--|
|--9-9-9-9-9---12-12-12-12-12-12-12-12--------------------------------------------------------------|
|--7-7-7-7-7---10-10-10-10-10-10-10-10---12-12-12-12-12-12----15-15-15-15-15-15--17-17-17-17-17-17--|
|---------------------------------------------------------------------------------------------------|
And do me if I say something you don't wanna hear.. and do me

|-------------------------------------------------------------|--------------------|--------------|
|-------------------------------------------------------------|--------------------|--------------|
|--9-9-9-9-9---12-12-12-12-12-12-12---5-5-5-5-5--7-7-7-7-7-7--|-9-9-9-9-9-9--7-7-7-|-6-6-5-5-4-4--|
|--9-9-9-9-9---12-12-12-12-12-12-12---5-5-5-5-5--7-7-7-7-7-7--|-9-9-9-9-9-9--7-7-7-|-6-6-5-5-4-4--|
|--7-7-7-7-7---10-10-10-10-10-10-10---3-3-3-3-3--5-5-5-5-5-5--|-7-7-7-7-7-7--5-5-5-|-4-4-3-3-2-2--|
|-------------------------------------------------------------|--------------------|--------------|
And screw me if you only hear what you wanna hear                screw me if I care         but I'm not leaving here
                                                              |____________________|
                                                                        ^
                                                                        |
                                                               play 2 times in the
                                                                2nd an 3rd chorus

-Stig-
  development and support by
dmitry ivanov