rock
 
|tablatures   |lyrics   |discussion forums   |more tabs @ XGuitar.com

Pearl Jam tabs

Satan's Bed guitar tab

Author/Artist: Stone Gossard and Mike McCready
Title: Satan's Bed
Album: Vitalogy
Transcribed by: Chris Wilson (rhythm and fills) Evan Cowan (solo)
Email: yokel@zip.com.au/ecowan@uclink4.berkeley.edu
(07/06/99)

(l.t.CD) means listen to CD for strumming pattern. 


-|--15-x-15-15^--|--15--|------------------------------|----------------------
-|---------------|------|------------------------------|----------------------
-|---------------|------|------------------------------|----------------------
-|---------------|------|------------------------------|----------------------
-|---------------|------|---4-----4-----4--------------|----------------------
-|---------------|------|-5---5-5---5-5---5-4-3vv-0-0--|----------------------
   Intro Mike      4x    Stone                      4x                        

-|------------------------------|--------------------------------|------------
-|------------------------------|--------------------------------|------------
-|------------------------------|--------------------------------|------------
-|------------------------------|--------------------------------|------------
-|---4-----4-----4--------------|-----4-----4-----4--------------|------------
-|-5---5-5---5-5---5-4-3vv-0-0--|---5---5-5---5-5---5-4-3vv-0-0--|------------
 Verse Stone     8x              4th time Ed doubles Stone till Chorus        

-|--------------15-------15--|--------------------15-------15-------15-|------
-|--13-15-15b17----15b17-----|--13h15-13h15-15b17----15b17----15b17----|------
-|---------------------------|-----------------------------------------|------
-|---------------------------|-----------------------------------------|------
-|---------------------------|-----------------------------------------|------
-|---------------------------|-----------------------------------------|------
   Mike  (l.t. CD for placement)                                              

-|-------15-------|------------------------------|----------------------15--|-
-|-15b17----17r15-|------------------------------|-13h15--13h15--15b17------|-
-|----------------|-5-----7-----5-----7----------|--------------------------|-
-|----------------|-5--5--7--7--5--5--7--7--x-x--|--------------------------|-
-|----------------|-3--5--5--7--3--5--5--7--x-x--|--------------------------|-
-|----------------|----3-----5-----3-----5--x-x--|--------------------------|-
                   Chorus Stone                4x Mike                        

-|----------------|----------------------15-|----------------|----------------
-|-15b17r15p13----|-13h15--13h15--15b17-----|-15b17r15p13-15-|----------------
-|-------------12-|-------------------------|----------------|----------------
-|----------------|-------------------------|----------------|----------------
-|----------------|-------------------------|----------------|----------------
-|----------------|-------------------------|----------------|----------------
                 (jam)                                                        

-|------------------------------|------------------------------|--------------
-|------------------------------|------------------------------|--------------
-|------------------------------|--5-----7-----5-----7---------|--------------
-|------------------------------|--5--5--7--7--5--5--7--7--x-x-|--------------
-|---4-----4-----4--------------|--3--5--5--7--3--5--5--7--x-x-|--------------
-|-5---5-5---5-5---5-4-3vv-0-0--|-----3-----5-----3-----5--x-x-|--------------
  Verse Stone          8x        Chorus Stone                4x               

-|--------------------15---|------------------|-----------------------15--|---
-|-13h15-13h15--15b17------|--15b17r15p13-----|--13h15--13h15--15b17------|---
-|-------------------------|--------------12--|---------------------------|---
-|-------------------------|------------------|---------------------------|---
-|-------------------------|------------------|---------------------------|---
-|-------------------------|------------------|---------------------------|---
 Mike                                        (jam)                            

-|----------------|------------------------------|----------------------------
-|-15b17r15p13-15-|------------------------------|----------------------------
-|----------------|--5---------------------------|----------------------------
-|----------------|--5--5-5-5-5-5-5-x-x-5-5-5-5--|----------------------------
-|----------------|--3--3-3-3-3-3-3-x-x-3-3-3-3--|----------------------------
-|----------------|------------------------------|----------------------------
                   Solo Stone PM after 1st C (l.t.CD)                         

-|----------------------------------------------|-----------------------------
-|----------------------------------------------|-----------------------------
-|-/12--12b14-14-14-14-14-14-14--14--14p12h14---|-----------------------------
-|----------------------------------------------|-----------------------------
-|----------------------------------------------|-----------------------------
-|----------------------------------------------|-----------------------------
 Solo,Mike grad.bend-----------|                                              

-|----------------|-------------------------|----------------------|----------
-|----------------|-------------------------|----------------------|----------
-|-14p12----------|-------------------------|-12----12-12-12-12----|----------
-|-------14p12h14-|-12-12b13-13-13r12-12-12-|-12b13-13-13-13-13r12-|----------
-|----------------|-------------------------|----------------------|----------
-|----------------|-------------------------|----------------------|----------
                                                hold bend------|              

-|---------------------------------|----------------------------------|-------
-|---------------------------------|------16-14-----16-14------16-14--|-------
-|-14-16-16b17r16-14--16b17r16-14--|--14--16-14-----16-14------16-14--|-------
-|-14----16b17r16-----16b17r16-----|--14--------16---------16---------|-------
-|---------------------------------|----------------------------------|-------
-|---------------------------------|----------------------------------|-------
                                                                              

-|------------------------------------------------------------------------|---
-|-/17-17-17----17-17----17-17----17-19-19b20r19-19-19b20r19-19-19b20r19--|---
-|-/17-17-17----17-17----17-17----17-19-19b20r19-19-19b20r19-19-19b20r19--|---
-|-----------19-------19-------19-----------------------------------------|---
-|------------------------------------------------------------------------|---
-|------------------------------------------------------------------------|---
                                                                              

-|--------------------------------|---12vvvvv--15b17---|----------------------
-|--------------------------------|--------------------|----------------------
-|--------------------------------|--------------------|----------------------
-|--------------------------------|--------------------|----------------------
-|-----4-----4-----4--------------|--------------------|----------------------
-|---5---5-5---5-5---5-4-3vv-0-0--|--------------------|----------------------
  Verse Stone        8x             Mike (l.t CD for placement)               

-|----------------9-------9-------9--------------|----------------------------
-|--8-8-8-9-10-10---10-10---10-10---10-9-8vv-8\--|----------------------------
-|-----------------------------------------------|----------------------------
-|-----------------------------------------------|----------------------------
-|-----------------------------------------------|----------------------------
-|-----------------------------------------------|----------------------------
                            (l.t CD for placement)                            

-|-------------------------------|----------------------15-|----------------|-
-|-------------------------------|-13h15--15p13--15b17-----|-15b17r15p13----|-
-|--5-----7-----5-----7----------|-------------------------|-------------12-|-
-|--5--5--7--7--5--5--7--7--x-x--|-------------------------|----------------|-
-|--3--5--5--7--3--5--5--7--x-x--|-------------------------|----------------|-
-|-----3-----5-----3-----5--x-x--|-------------------------|----------------|-
   Chorus Stone                   Mike               (jam)                    

-|-----------------------15--|------------------|--------------------------|--
-|--13h15--13h15--15b17------|--15b17r15p13-15v-|--------------------------|--
-|---------------------------|------------------|--------------------------|--
-|---------------------------|------------------|--------------------------|--
-|---------------------------|------------------|--------------------------|--
-|---------------------------|------------------|--------------------------|--
                   (jam)    ...it's all Am\C pent.         Fade out......     

  development and support by
dmitry ivanov