rock
 
|tablatures   |lyrics   |discussion forums   |more tabs @ XGuitar.com

Pearl Jam tabs

Rockin' In The Free World bass tab

Song Title: Rockin' In the Free World (corrections)
Artist: Pearl Jam
----------------------------------------------

verse
----------------------
----------------------
-----------------5-5-3
-0-0-0-0-0-0-0-0------
repeat as needed

chorus
-------------------------------------
-------------------------------------
---------5-5-5-5-----3--3333333------
-3-3-3-3-----------------------000000

Submitted by:  Bassman73 (Bassman73@aol.com)
  development and support by
dmitry ivanov