rock
 
|tablatures   |lyrics   |discussion forums   |more tabs @ XGuitar.com

Pearl Jam tabs

Release bass tab

Pearl Jam - Release
Submitted By: KennyBorders
EMail: Spankielnc@aol.com


Intro
G||---------------|
D||---------------|
A||--5------------|
E||---------------|

Verse 1
   I see the world.....
G||----------------|---------------------|----------------|
D||----------------|---------------------|----------------|
A||--5------2------|--3---3--3-3--3-3-3/-|--5------2------|
E||----------------|---------------------|----------------|

---------------------|----------------|---------------------|
---------------------|----------------|---------------------|
--3---3--3-3--3-3-3/-|--5------2------|--3---3--3-3--3-3-3/-|
---------------------|----------------|---------------------|

----------------|---------------------|----------------|
----------------|---------------------|----------------|
--5------2------|--3---3--3-3--3-3-3/-|--5------2------|
----------------|---------------------|----------------|

----------------|----------------|-----------------------|
----------------|----------------|-----------------------|
--3-------------|--5------2------|--3/-----10--10-10h12--|
---------3------|----------------|-----------------------|

----------------|------------------|----------------|
----------------|------------------|----------------|
--5------2------|--3---------------|--5------2------|
----------------|---------3---3-3--|----------------|
                      ohhhh.....
-------------------|----------------|-------------------|
-------------5-7---|----------------|-------------------|
--3------3/5-------|--5------2------|--3------3---------|
-------------------|----------------|------------3-3-3--|

----------------|-------------------|----------------|
----------------|-------------5-7---|----------------|
--5------2------|--3------3/5-------|--5------2------|
----------------|-------------------|----------------|

------------------|----------------|---------------|
------------------|----------------|---------------|
--3------3--------|--5------2------|--3------------|
------------3--3--|----------------|---------------|

Verse 2
   Oh, dear dad..........
G||----------------|----------------|----------------|
D||----------------|----------------|----------------|
A||--5------2------|--3----------3/-|--5------2------|
E||----------------|----------------|----------------|

----------------|----------------|----------------|----------------|
----------------|----------------|----------------|----------------|
--3----------3/-|--5------2------|--3----------3/-|--5------2------|
----------------|----------------|----------------|----------------|

----------------|----------------|-------------------|
----------------|----------------|-------------------|
--3----------3/-|--5------2------|--3----------------|
----------------|----------------|---------3--3-3-3/-|

----------------|-------------------|----------------|
----------------|-------------5-7---|----------------|
--5------2------|--3------3/5-------|--5------2------|
----------------|-------------------|----------------|
                      Release me.....
--------------------|----------------|---------------|
--------------------|----------------|---------------|
--3------3--3h5-----|--5------2------|--3------------|
----------------5-3-|----------------|---------------|
 ohhh.....
----------------|---------------|----------------|---------------|
----------------|---------------|----------------|---------------|
--5------2------|--3------------|--5------2------|--3------------|
----------------|---------------|----------------|---------------|

----------------|---------------|----------------|---------------|
----------------|---------------|----------------|---------------|
--5------2------|--3------------|--5------2------|--3------------|
----------------|---------------|----------------|---------------|

Verse 3
   Oh dear dad...........
G||----------------|---------------|
D||----------------|---------------|
A||--5------2------|--3------------|
E||----------------|---------------|

---------------|----------------|----------------|---------------|
---------------|----------------|----------------|---------------|
--5------------|--3----------3/-|--5------2------|--3------------|
---------------|----------------|----------------|---------------|

----------------|---------------|----------------|
----------------|---------------|----------------|
--5------2------|--3------------|--5------2------|
----------------|---------------|----------------|


--------------------|----------------|-------------------|
--------------------|----------------|-------------------|
--3-----3-----------|--5------2------|--3/-----10--12----|
----------3--3--3-0-|----------------|-------------------|
                                      Release me.....
----------------|--------------------|----------------|
----------------|--------------------|----------------|
--5------2------|--3------3--3h5-----|--5------2------|
----------------|----------------5-3-|----------------|
                   Release me....
---------------|----------------|--------------------|
---------------|----------------|--------------------|
--3------------|--5------2------|--3------3--3h5-----|
---------------|----------------|----------------5-3-|
 Release me....                  Release me.....
----------------|---------------|----------------|
----------------|---------------|----------------|
--5------2------|--3------------|--5------2------|
----------------|---------------|----------------|
                      Ohhh....
--------------------|----------------|------------------|
--------------------|----------------|------------------|
--3------3--3h5-----|--5------2------|--3------3--3--3--|
----------------5-3-|----------------|------------------|

----------------|---------------------|--------------------|
----------------|---------------------|--------------------|
--5------2------|--3------3-3-3-3-3-3-|--5---5-5--2---2-2--|
----------------|---------------------|--------------------|

-----------------------|--------------------|
-----------------------|--------------------|
--3--3---3-3-3-3-3-3-3-|--5--5---5-2--2---2-|
-----------------------|--------------------|

--------------------------|--------------------|-----------------|
--------------------------|--------------------|-----------------|
--3-3-3-3-3-3-3-3-3-3-3-3-|--5--5---5-2--2---2-|--3------3---3---|
--------------------------|--------------------|-----------------|

----------------------|------------------------|
----------------------|------------------------|
--5---5-5-5-2---2-2-2-|--3---3-3-3-3-3-3-3-3-3-|
----------------------|------------------------|

----------------------|------------------------|--------------------|
----------------------|------------------------|--------------------|
--5---5-5-5-2---2-2-2-|--3---3-3-3-3-3-3-3-3-3-|--5---5--5-2---2--2-|
----------------------|------------------------|--------------------|

------------------|----------------|---------------||
------------------|----------------|---------------||
--3---3---3---3---|--5------2------|--3------------||
------------------|----------------|---------------||
  development and support by
dmitry ivanov