rock
 
|tablatures   |lyrics   |discussion forums   |more tabs @ XGuitar.com

Pearl Jam tabs

Red Mosquito guitar tab

Author/Artist: Pearl Jam
Title: Red Mosquito (Rhythm)
Album: No Code
Transcribed by: Gregg Akoury
Email: stonegossard13@excite.com

Here is the rythym part for red mosquito. This one took
a while and i'm pretty sure its right. Suggestion/Corrections
welcome.

-|-------------0--1--0-0-0-0--0-0-0-0--------------------------------------|--
-|-----------3-0--1--1-1-1-1--3-3-3-3---5p0--3p0--5p0----------------------|--
-|-----------2-0--2--0-0-0-0--2-2-2-2---5p0--4p0--5p0----------------------|--
-|-----------0-0--3--2-2-2-2--0-0-0-0---5p0--5p0--5p0----------------------|--
-|-----------0-------3-3-3-3--0-0-0-0--------------------------------------|--
-|-------------------------------------------------------------------------|--
  Intro   6x   ^(quick upstroke)        ^hard to hear but DEFINITELY there^   

---0-------------1------------------------------------------------------------
---3-------------1------------------------------------------------------------
---2-------------2------------------------------------------------------------
---0-------------3------------------------------------------------------------
------------------------------------------------------------------------------
------------------------------------------------------------------------------
 'watched from the window with a red mosquito                                 

---0-------------0------------------------------------------------------------
---3-------------1-----1------------------------------------------------------
---2-------------0-----0------------------------------------------------------
---0-------------2------------------------------------------------------------
-----------------3---3--------------------------------------------------------
------------------------------------------------------------------------------
  'i was not allowed to leave the room                                        

---0-------------1------------------------------------------------------------
---3-------------1------------------------------------------------------------
---2-------------2------------------------------------------------------------
---0-------------3------------------------------------------------------------
------------------------------------------------------------------------------
------------------------------------------------------------------------------
  'i saw the sun go down and now it's coming up                               

------0---------0-------0-----0-----|---------0----------0-0-0--0-0-0--0------
------3---------1-------1-----1-----|---------3----------1-1-1--1-1-1--1------
------2---------0-------0-----0-----|---------2----------0-0-0--0-0-0--0------
------0---------2-------3-----2-----|---------0----------2-2-2--3-3-3--2------
----------------3-------3-----3-----|--------------------3-3-3--3-3-3--3------
------------------------------------|-----------------------------------------
  G1  'somewhere in the time between G2(Acc.)'somewhere in the time between   

-------0-1-0-0-0--0-0-0-------------------------------------------------------
-----3-0-1-1-1-1--3-3-3---5p0--3p0--5p0---------------------------------------
-----2-0-2-0-0-0--2-2-2---5p0--4p0--5p0---------------------------------------
-----0-0-3-2-2-2--0-0-0---5p0--5p0--5p0---------------------------------------
-----0-----3-3-3--------------------------------------------------------------
------------------------------------------------------------------------------
  Pre-chorus   x2                                                 Chorus>>    

-----1----0-------------------------------------------------------------------
-----1-1--1--------------8----------------------------------------------------
-----2----0------------8---8----------------7---------------------------------
-----3----2----------8-------8--------------8---------------------2-3-5-3-----
----------3--------6------------------------8-----------------3-5-------------
----------------------------------------6-------------------------------------
 G1.i was bitten   must have been the  devil... he was just paying me...      

------------------------------------------------------------0-0-0-0-----------
----1------------------1------------8h9p8-------------------1-1-1-1-----------
------2--------------0---0--------8-------8-----7-----------0-0-0-0-----------
-------------------2-------2----8-----------8-----8---------2-2-3-2-----------
-----------------3------------6---------------------8-------3-3-3-3-----------
------------------------------------------------------------------------------
 G1. a little visit, reminding...prescence... let me know... he's a waiting.  

-----1-1-1-1----0-0-0-0----6-6-6-6----6-6-6-6----0-0-0-0-0-0-0-0-0-0-0--------
-----1-1-1-1----1-1-1-1----8-8-8-8----6-6-6-6----1-1-1-1-1-1-1-1-1-1-1--------
-----2-2-2-2----0-0-0-0----8-8-8-8----7-7-7-7----0-0-0-0-0-0-0-0-0-0-0--------
-----3-3-3-3----2-2-2-2----8-8-8-8----8-8-8-8----2-2-2-2-2-2-3-3-2-2-2--------
----------------3-3-3-3----6-6-6-6----8-8-8-8----3-3-3-3-3-3-3-3-3-3-3--------
--------------------------------------6-6-6-6---------------------------------
 G2. a little visit, reminding...prescence...  let me now... he's a waiting.  

----------------|-------------------------------------------------------------
----------------|-------------------------------------------------------------
----------------|-------------------------------------------------------------
----------------|-------------------------------------------------------------
----------------|-------------------------------------------------------------
----------------|-------------------------------------------------------------
 repeat intro 4x   Repeat verse pattern improving with ringing notes and      

------------------------------------------------------------------------------
------------------------------------------------------------------------------
------------------------------------------------------------------------------
------------------------------------------------------------------------------
------------------------------------------------------------------------------
------------------------------------------------------------------------------
 such. G2 strums most of the chords throughout the rest of the song.          

----0--1-------0--0-0----0--1------0--0--0--0------0--0--0--0-----|-----------
----3--1-------3--1--1---3--1------3--1--1--1------3--1--1--1-----|-----------
----2--2-------2--0---0--2--2------2--0--0--0------2--0--0--0-----|-----------
----0--3-------0--2------0--3------0--2--3--2------0--2--3--2-----|-----------
------------------3-------------------3--3--3---------3--3--3-----|-----------
------------------------------------------------------------------|-----------
 2nd verse chord progression.            ^Csus4          ^Cusu4               

--------------|-------------------------|-------------------------------------
--------------|-------------------------|-------------------------------------
--------------|-------------------------|-------------------------------------
--------------|-------------------------|-------------------------------------
--------------|-------------------------|-------------------------------------
--------------|-------------------------|-------------------------------------
 repeat chorus   repeat intro pattern 8x                                      

------------------------------------------------------------------------------
-----------1--1-------------1-------------8-----------------------------------
---------2------2---------0---0---------8---8----------7----------------------
-------3----------3-----2-------2-----8-------8------8---8--------------------
----------------------3-------------6--------------8-------8------------------
-------------------------------------------------6----------------------------
 Outro 6x   'if i had known then what i now know...                           


Author/Artist: Mike McCready
Title: Red Mosquito (Lead)
Album: No Code
Transcribed by: Evan Cowan with additions by Mike Mabie
Email: ecowan@uclink4.berkeley.edu

The 9 /10 slides at the biginning are approx.
He slides back and fourth from about 9.75 to 10.25.
Use your ear to get the right pitch.

-|----------------------------------------------------|-----------------------
-|----------------------------------------------------|-----------------------
-|-10\9----9/10\9/10\9/10\9/10\9/10\9/10\9/10---------|-----------------------
-|---------------------------------------------12vvvv-|-----------------------
-|----------------------------------------------------|-----------------------
-|----------------------------------------------------|-----------------------
 Intro with slide------------------------------------                         

-|---------------------------|------------------------|-----------------------
-|---------------------------|------------------------|-----------------------
-|------10-12-10h12-10----10-|-10b----10-12/14-10-12\-|-----------------------
-|10h12----------------12----|-----12-----------------|-----------------------
-|---------------------------|------------------------|-----------------------
-|---------------------------|------------------------|-----------------------
                                         ----slide---                         

-|----------10-------------------------|--------------|-----------------------
-|-------10----13-10-------------------|--------------|-----------------------
-|-12b14-------------12b14r12p10----10-|-12b14-10-----|-----------------------
-|-------------------------------12----|----------12\-|-----------------------
-|-------------------------------------|--------------|-----------------------
-|-------------------------------------|--------------|-----------------------
                                                                              

-|-------------------------------------|--------------------------------------
-|-------------------------------------|--------------------------------------
-|-------------------------------------|--------------------------------------
-|-------------------------------------|--------------------------------------
-|-8/10\9/10\9/10\9/10----------10-----|--------------------------------------
-|---------------------13\10/13----10\-|--------------------------------------
  ----------wih slide------------------                                       

-|--------------------------------------10b12r10vvvvvvv\-|--------------------
-|-------------------------------------------------------|--------------------
-|-------------10h12-12b14-12-10h12-10-------------------|--------------------
-|-------10h12-------------------------------------------|--------------------
-|-10/12-------------------------------------------------|--------------------
-|-------------------------------------------------------|--------------------
                                                                              

-|----------------------------------------------------------|-----------------
-|----------------------------------------------------------|-----------------
-|-12vvvvvvv\10----------13-12-10----10h12-10---------------|-----------------
-|--------------12vv-\------------12-----------12-10-12vvv\-|-----------------
-|----------------------------------------------------------|-----------------
-|----------------------------------------------------------|-----------------
  ----with slide------     second solo                                        

-|----------------|-----------------------------------------------------------
-|----------------|-----------------------------------------------------------
-|-10/9/5vvvv-----|-----------------------------------------------------------
-|----------------|-----------------------------------------------------------
-|----------------|-----------------------------------------------------------
-|----------------|-----------------------------------------------------------
  bridge with slide                                                           

-|------------------------------------------------------------|---------------
-|------------------------------------------------------------|---------------
-|-12vvvvv-12-12-12-10----10----12\-0-12\-0-12\-0-12\-0-10----|---------------
-|---------------------12----12----------------------------12-|---------------
-|------------------------------------------------------------|---------------
-|------------------------------------------------------------|---------------
  ------third solo with slide---------------------------------                

-|---------------------------------------------------------------------|------
-|---------18----18/20--20vv20vv20vv20vv20vv20-------------------------|------
-|-/19vvvv----19-------------------------------------10-12-10----------|------
-|---------------------------------------------10h12----------12-10-12-|------
-|---------------------------------------------------------------------|------
-|---------------------------------------------------------------------|------
  --------------------slide-------------------                                

-|-------------------|--------------------------|-----------------------------
-|-------------------|--------------------------|-----------------------------
-|-------10-12-10vv\-|-10\9\5vvvv---10\9/12vvvv-|-----------------------------
-|-10h12-------------|--------------------------|-----------------------------
-|-------------------|--------------------------|-----------------------------
-|-------------------|--------------------------|-----------------------------
                       ----bridge with slide----                              

-|-------------------|-------------|----------------|-------------------------
-|-------------------|-------------|-18----18-------|-------------------------
-|-12\10----10-------|-----17/19vv-|----19----19vvv-|-------------------------
-|-------12----12vvv-|-/19---------|----------------|-------------------------
-|-------------------|-------------|----------------|-------------------------
-|-------------------|-------------|----------------|-------------------------
  ----outro solo with slide-------------------------                          

-|----------10---------------------------------------------|------------------
-|-------10----13p10h13------------------------------------|------------------
-|-12b14----------------12p10--14-10b----------------------|------------------
-|---------------------------12-------12-10----------------|------------------
-|------------------------------------------12-11-10-11-12-|------------------
-|---------------------------------------------------------|------------------
                                                                              

-|---------------------------------------10-------------------------10----|---
-|------------------------------------10----13-10----------------10----10-|---
-|------------------------------12b14-------------12-10-12-12b14----------|---
-|-10----10-12-10--10-12-10--12-------------------------------------------|---
-|----12------------------------------------------------------------------|---
-|------------------------------------------------------------------------|---
                                                                              

-|--------------------------------|----------10-------------------|-----------
-|-----------------10/13/15vv-15\-|-------10----13-10-------------|-----------
-|-12\-0-12\0-12vv----------------|-12b14-------------12-10h12-10-|-----------
-|--------------------------------|-------------------------------|-----------
-|--------------------------------|-------------------------------|-----------
-|--------------------------------|-------------------------------|-----------
  ------------slide---------------                                            

-|-------------------------|--------------------------------------------------
-|-------------10/13/15vvv-|--------------------------------------------------
-|-------10/12-------------|--------------------------------------------------
-|-10/12-------------------|--------------------------------------------------
-|-------------------------|--------------------------------------------------
-|-------------------------|--------------------------------------------------
  --use slide and pick all notes---        Whew! Over and out                 



  development and support by
dmitry ivanov