rock
 
|tablatures   |lyrics   |discussion forums   |more tabs @ XGuitar.com

Pearl Jam tabs

Red Mosquito bass tab

Red Mosquito
Pearl Jam
Tabbed by Nick Key (nkey@ionet.net)

INTRO:

G-|-----------------------7---7---------------------------|-
D-|-------------------------7-----------------------------|-
A-|-5-0h5p0-5p0-5-0h5p0----------5-0h5p0-5p0-5-0h5p0-5-0--|-
E-|-------------------------------------------------------|-

Lather, Rinse, Repeat

First VERSE:
  
G|------------------------------------------------10---------|
D|------------------------------------------10--10--10-------|
A|--5--5h7-8---5--5h7-3---5--5h7-8--5--5h7-8--8-------10-----|
E|----5----------5----------5---------5----------------------|

Repeat Intro

CHORUS:

G-|---------------------|
D-|---------------------|
A-|-8--3--6--1--3-------|
E-|---------------------|

Second VERSE:
  
                                    Play this part twice
G|---------------------------------|---------------10---------|
D|---------------------------------|---------10--10--10-------|
A|--5--5h7-8---5--5h7-3---5--5h7-8-|-5--5h7-8--8-------10-----|
E|----5--------5------------5------|---5----------------------|


Outro:

G-|--------------------|
D-|--------------------|
A-|-8--3--6--1---------|
E-|--------------------|
  development and support by
dmitry ivanov