rock
 
|tablatures   |lyrics   |discussion forums   |more tabs @ XGuitar.com

Pearl Jam tabs

Rearviewmirror guitar tab

Author/Artist: Pearl Jam
Title: RearViewMirror
Album: Vs.
Transcribed by: Evan Cowan and Dave Coleman
Email: ecowan@uclink4.berkeley.edu and djcole@one.net.au
(07/06/99)

Guitar 1 = Ed Vedder (Telecaster)
Guitar 2 = Stone Gossard (Les Paul)
Guitar 3 = Mike McCready (Stratocaster)


INTRO

G1 - Clean
G2 - Distorted
G3 - Distorted (Palm Muted)CHORUS 

Play twice

G1 - Slightly distorted 
G2 - Slightly distorted (quiet)
POST CHORUS

G1 - Slightly distorted
VERSE 2

G1 - Clean
G2 - Distorted
CHORUS 2 - Same as first (with the exception of G3 comes in second time)

G3 - Distorted

BRIDGE (Live version)

G1 - Clean
PRE 3RD CHORUS

G1,G2 - Distorted (Palm Muted)
G1,G2 - Distorted (not 100% sure about # of strums)
CHORUS 3 - Same as first (with the exception of G3 comes in 1st time)

G3 - Distorted
after playing chorus G1, G2 play this (while G3 is playing lead)

G1,G2 - Distorted (not 100% sure about # of strums)

-|-------------------------|-----------------|--------------------------------
-|-------------------------|-----------------|--------------------------------
-|-------------------------|-----------------|--------------------------------
-|-------0-----------------|-----0-----------|--------------------------------
-|----0-----0--5h7---------|---0---0-7h9-----|--------------------------------
-|-5-----------------0-0---|-7-----------0-0-|--------------------------------
 G2, G3 enter 4th time  16x                4x                                 

-|-----------------|-----------------|-----------------|----------------------
-|-----------------|-----------------|-----------------|----------------------
-|-----------------|-----------------|-----------------|----------------------
-|-----0-----------|-----0-----------|-----0-----------|----------------------
-|---0---0-5h7-----|---0---0-7h9-----|---0---0-5h7-----|----------------------
-|-5-----------0-0-|-7-----------0-0-|-5-----------0-0-|----------------------
                 4x                4x                4x                       

-|-----------------------------------------------------------|----------------
-|-----------------------------------------------------------|----------------
-|-----------------------------------------------------------|----------------
-|-9-9-9-9-9-9-9-9-9-9-9-9-9\11--5-5-5-5-5-5-5-5-5-5-5-5-5\7-|----------------
-|-9-9-9-9-9-9-9-9-9-9-9-9-9\11--5-5-5-5-5-5-5-5-5-5-5-5-5\7-|----------------
-|-7-7-7-7-7-7-7-7-7-7-7-7-7\9---3-3-3-3-3-3-3-3-3-3-3-3-3\5-|----------------
                                                                              

-|-----------------------------------------------------------|----------------
-|-----------------------------------------------------------|----------------
-|-----------------------------------------------------------|----------------
-|-9-9---------------------9\11--5-5---------------------5\7-|----------------
-|-9-9---------------------9\11--5-5---------------------5\7-|----------------
-|-7-7---------------------7\9---3-3---------------------3\5-|----------------
                                                                              

-|-----------------------------3-|--------------------------------------------
-|-----------------------------3-|--------------------------------------------
-|-----------------------------0-|-same-G-chord-repeatedly-by-G1-only---------
-|-4-4-4-4-4-4-4-4-4-4---4--4--0-|--------------------------------------------
-|-4-4-4-4-4-4-4-4-4-4---4--4--2-|--------------------------------------------
-|-2-2-2-2-2-2-2-2-2-2---0--2--3-|--------------------------------------------
                                                                              

-|-------------------------------|--------------------------------------------
-|-------------------------------|--------------------------------------------
-|-------------------------------|-same-G-chord-repeatedly--------------------
-|-4---------------------4--4--5-|--------------------------------------------
-|-4---------------------4--4--5-|--------------------------------------------
-|-2---------------------0--2--3-|--------------------------------------------
                                                                              

-|-5-5-5--5-5-5--5-5-5--5-5-5-|-----------------------------------------------
-|-5-5-5--5-5-5--5-5-5--5-5-5-|-----------------------------------------------
-|-6-6-6--6-6-6--6-6-6--6-6-6-|-----------------------------------------------
-|-7-7-7--7-7-7--7-7-7--7-7-7-|-----------------------------------------------
-|-7-7-7--7-7-7--7-7-7--7-7-7-|-----------------------------------------------
-|-5-5-5--5-5-5--5-5-5--5-5-5-|-----------------------------------------------
                                                                              

-|-----------------|-----------------|-----------------|----------------------
-|-----------------|-----------------|-----------------|----------------------
-|-----------------|-----------------|-----------------|----------------------
-|-----0-----------|-----0-----------|-----0-----------|----------------------
-|---0---0-5h7-----|---0---0-7h9-----|---0---0-5h7-----|----------------------
-|-5-----------0-0-|-7-----------0-0-|-5-----------0-0-|----------------------
                12x                4x                4x                       

-|-----------------------|-----------------------|-----------------------|----
-|-----------------------|-----------------------|-----------------------|----
-|-----------------------|-----------------------|-----------------------|----
-|-7-7-7--x-x-7-7-7--x-x-|-9-9-9--x-x-9-9-9--x-x-|-7-7-7--x-x-7-7-7--x-x-|----
-|-7-7-7--x-x-7-7-7--x-x-|-9-9-9--x-x-9-9-9--x-x-|-7-7-7--x-x-7-7-7--x-x-|----
-|-5-5-5------5-5-5------|-7-7-7------7-7-7------|-5-5-5------5-5-5------|----
                       6x                      2x                      2x     

-|--------12-14-|-----------------------------------------14-------|----------
-|-12--12-------|-12--12-12-14-14b15r14--12-14-14b15r14-\----------|----------
-|--------------|-----------------------------------------11-11/14-|----------
-|--------------|--------------------------------------------------|----------
-|--------------|--------------------------------------------------|----------
-|--------------|--------------------------------------------------|----------
              3x                                                              

-|-5-----------------------------|-5-----7-5---|-7-5---|-7-|-7-5---|-5-|------
-|---5---------------------------|---5-5-----5-|-----5-|---|-----5-|---|------
-|-----6-6h7(hold)-7-7p6(hold)-6-|-------------|-------|---|-------|---|------
-|-------------------------------|-------------|-------|---|-------|---|------
-|-------------------------------|-------------|-------|---|-------|---|------
-|-------------------------------|-------------|-------|---|-------|---|------
          2x      3x          3x                                              

-|-5-5-5-5-5-5-5-5-|----------------------------------------------------------
-|-5-5-5-5-5-5-5-5-|----------------------------------------------------------
-|-6-6-6-6-6-6-6-6-|----------------------------------------------------------
-|-7-7-7-7-7-7-7-7-|----------------------------------------------------------
-|-7-7-7-7-7-7-7-7-|----------------------------------------------------------
-|-5-5-5-5-5-5-5-5-|----------------------------------------------------------
                                                                              

-|-5-5-5-5-5-5-5-5-|----------------------------------------------------------
-|-5-5-5-5-5-5-5-5-|----------------------------------------------------------
-|-6-6-6-6-6-6-6-6-|----------------------------------------------------------
-|-7-7-7-7-7-7-7-7-|----------------------------------------------------------
-|-7-7-7-7-7-7-7-7-|----------------------------------------------------------
-|-5-5-5-5-5-5-5-5-|----------------------------------------------------------
                                                                              

-|-7-7-7-7-7-7-7-7-|-5-5-5-5-5-5-5-5-|-7-7-7-7-7-7-7-7-|-5-5-5-5-5-5-5-5-|----
-|-7-7-7-7-7-7-7-7-|-5-5-5-5-5-5-5-5-|-7-7-7-7-7-7-7-7-|-5-5-5-5-5-5-5-5-|----
-|-8-8-8-8-8-8-8-8-|-6-6-6-6-6-6-6-6-|-8-8-8-8-8-8-8-8-|-6-6-6-6-6-6-6-6-|----
-|-9-9-9-9-9-9-9-9-|-7-7-7-7-7-7-7-7-|-9-9-9-9-9-9-9-9-|-7-7-7-7-7-7-7-7-|----
-|-9-9-9-9-9-9-9-9-|-7-7-7-7-7-7-7-7-|-9-9-9-9-9-9-9-9-|-7-7-7-7-7-7-7-7-|----
-|-7-7-7-7-7-7-7-7-|-5-5-5-5-5-5-5-5-|-7-7-7-7-7-7-7-7-|-5-5-5-5-5-5-5-5-|----
                 4x                4x                4x                4x     

-|--------12-14--|---------------------|----------------------|-------12-14-|-
-|-12--12--------|12-12-12-14-14b15r14-|-12-12-12-14-14b15r14-|-12-12-------|-
-|---------------|---------------------|----------------------|-------------|-
-|---------------|---------------------|----------------------|-------------|-
-|---------------|---------------------|----------------------|-------------|-
-|---------------|---------------------|----------------------|-------------|-
               3x                                                         3x  

-|------------------------|-14b15r14-12-14-12-14-14b15r14-12-14-12-14-|-------
-|-12-12-12-14-14b15r14---|-------------------------------------------|-------
-|------------------------|-------------------------------------------|-------
-|------------------------|-------------------------------------------|-------
-|------------------------|-------------------------------------------|-------
-|------------------------|-------------------------------------------|-------
                        2x                                          2x        

-|-19b21r19vvvvv--|-19b21--19b21r19----------------------------------------|--
-|----------------|-----------------19b21r19-14b16r14--12-14-12-19b21r19---|--
-|----------------|--------------------------------------------------------|--
-|----------------|--------------------------------------------------------|--
-|----------------|--------------------------------------------------------|--
-|----------------|--------------------------------------------------------|--
                8x                                                            

-|-19--19b21r19-|-------------------------------------------------------------
-|--------------|-------------------------------------------------------------
-|--------------|--Ends-with-feedback-----------------------------------------
-|--------------|-------------------------------------------------------------
-|--------------|-------------------------------------------------------------
-|--------------|-------------------------------------------------------------
                                                                              

-|-7-7-7-7-7-7-7-7-|-5-5-5-5-5-5-5-5-|-7-7-7-7-7-7-7-7-|-5-5-5-5-5-5-5-5-|----
-|-7-7-7-7-7-7-7-7-|-5-5-5-5-5-5-5-5-|-7-7-7-7-7-7-7-7-|-5-5-5-5-5-5-5-5-|----
-|-8-8-8-8-8-8-8-8-|-6-6-6-6-6-6-6-6-|-8-8-8-8-8-8-8-8-|-6-6-6-6-6-6-6-6-|----
-|-9-9-9-9-9-9-9-9-|-7-7-7-7-7-7-7-7-|-9-9-9-9-9-9-9-9-|-7-7-7-7-7-7-7-7-|----
-|-9-9-9-9-9-9-9-9-|-7-7-7-7-7-7-7-7-|-9-9-9-9-9-9-9-9-|-7-7-7-7-7-7-7-7-|----
-|-7-7-7-7-7-7-7-7-|-5-5-5-5-5-5-5-5-|-7-7-7-7-7-7-7-7-|-5-5-5-5-5-5-5-5-|----
                             6x                                               

-|-7\-|-----------------------------------------------------------------------
-|-7\-|-----------------------------------------------------------------------
-|-8\-|-----------------------------------------------------------------------
-|-9\-|-----------------------------------------------------------------------
-|-9\-|-----------------------------------------------------------------------
-|-7\-|-----------------------------------------------------------------------
                                                                              

  development and support by
dmitry ivanov