rock
 
|tablatures   |lyrics   |discussion forums   |more tabs @ XGuitar.com

Pearl Jam tabs

Rearviewmirror bass tab

Song:	Rearviewmirror
Artist:	Pearl Jam 
Album:	VS

Tabbed by reubs
(corrections to the tab submitted by Dave Miller)

Verse A                                                                     
A|-----5---5-7---------5---5-7--
E|-5-5---5-----0-0-5-5---5------
     I took a drive today...                                                                           

Verse B 
A|-----7---7-9------7---7-9--
E|-7-7---7-----7--7---7------
    I guess it was the beatings...                                                                            

Chorus                                                                     
A|-2---2-4--------------------
E|---------3---3-5-2---0-2-3--
     I couldn't breathe...                                                                           

Bridge 1(leads back into verse A from chorus)                                                                     
A|--------------------------------
E|-5--5----5--5----5--5----5--5---

Bridge 2
(played under a bit of stuffing around on the 
 guitar before verse A fades back in)
A|--------------------------------
E|-5-------5----------------------

Outro
A|-2-------0---------------------
E|-------------------------------
  development and support by
dmitry ivanov