rock
 
|tablatures   |lyrics   |discussion forums   |more tabs @ XGuitar.com

Pearl Jam tabs

Rats guitar tab

Author/Artist: Pearl Jam
Title: Rats
Album: Vs.
Transcribed by: Evan Cowan
Email: ecowan@uclink4.berkeley.edu

It's very hard to hear what stone is doing in the verse, what i've tabbed
is a guess.
Stone (G1) - Dropped-D tuning (DADGBE) (low to high)

-|----------------------|-------------------------------------|---------------
-|----------------------|-------------------------------------|---------------
-|----------------------|-------------------------------------|---------------
-|----------------------|----5\--x-x-x-x-x-3\-x-x-x-2\--x-5\--|---------------
-|----------------------|----5\--x-x-x-x-x-3\-x-x-x-2\--x-5\--|---------------
-|----------------------|-5\-5\--x-x-x-x-x-3\-x-x-x-2\--x-5\--|---------------
 Intro (Bass and Drums)  Verse, G1                                            

-|--------------------------|-------------------------------|-----------------
-|--------------------------|-------------------------------|-----------------
-|--------------------------|-------------------------------|-----------------
-|-x-x-5\-x-x-3-3-x-x-2-x-5-|-x-5\----------------------x-5-|-----------------
-|-x-x-5\-x-x-3-3-x-x-2-x-5-|-x-5\-------x-x-x-3-3--x-2-x-5-|-----------------
-|-x-x-5\-x-x-3-3-x-x-2-x-5-|-x-5\-/12\----x-x-3-3--x-2-x-5-|-----------------
                                                                              

-|----------------------------|------------------------------------|----------
-|----------------------------|------------------------------------|----------
-|----------------------------|-12\----/9---\-----/12--\---/9---\--|----------
-|-x-x-5\--x-x-x-3\--x-2--x-5-|-12\----/9---\-----/12--\---/9---\--|----------
-|-x-x-5\--x-x-x-3\--x-2--x-5-|------------------------------------|----------
-|-x-x-5\--x-x-x-3\--x-2--x-5-|------------------------------------|----------
                              Verse, G2 (w/ slide)              2x            

-|-------------------------------|-----------------------|-------------|------
-|-------------------------------|-----------------------|-------------|------
-|-2--2---4-4--5--5-5-5-5-5-5-5--|-14--14\-14--14\--14\--|--14\--------|------
-|-2--2---4-4--5--5-5-5-5-5-5-5--|-----------------------|-----\-------|------
-|-0--0---2-2--3--3-3-3-3-3-3-3--|-----------------------|-------------|------
-|-------------------------------|-----------------------|-------------|------
 Chorus, G1                    4x G2 (w/ slide)        4x                     

-|---------------------------------------|----------------------------------|-
-|---------------------------------------|----------------------------------|-
-|---------2b3r2p0---0-------------------|----------------------------------|-
-|-x-x-2-----------2----3--x-x-2--x-x-5--|-x-x-5\-------x-x-x-x-3-x-x-2-x-5-|-
-|-x-x-2----------------3--x-x-2--x-x-5--|-x-x-5\-x-10\-x-x-x-x-3-x-x-2-x-5-|-
-|-x-x-2----------------3--x-x-2--x-x-5--|-x-x-5\-------x-x-x-x-3-x-x-2-x-5-|-
 Verse, G1                             2x                                     

-|-------------------------------------|------------------------------------|-
-|-------------------------------------|------------------------------------|-
-|-------------------------------------|-12\----/9---\-----/12--\---/9---\--|-
-|-x-x-5\--------x-5-x-x-3-x-x-2--x-5\-|-12\----/9---\-----/12--\---/9---\--|-
-|-x-x-5\-x-10\--x-5-x-x-3-x-x-2--x-5\-|------------------------------------|-
-|-x-x-5\--------x-5-x-x-3-x-x-2--x-5\-|------------------------------------|-
                                        Verse, G2                         2x  

-|-------------------------------|----------------------|---------|-----------
-|-------------------------------|----------------------|---------|-----------
-|-2--2---4-4--5--5-5-5-5-5-5-5--|-14--14\-14--14\-14\--|-14\-----|-----------
-|-2--2---4-4--5--5-5-5-5-5-5-5--|----------------------|---------|-----------
-|-0--0---2-2--3--3-3-3-3-3-3-3--|----------------------|---------|-----------
-|-------------------------------|----------------------|---------|-----------
 Chorus, G1                    4x G2 (w/ slide)      4x                       

-|--------------|------------------------10-12-b14r12p10-12\--0-12-12-0--|----
-|-5--5---------|-12--12p10----------------------------------------------|----
-|-7--7---------|-----------12-12--9-12----------------------------------|----
-|-6--6---------|--------------------------------------------------------|----
-|-7--7---------|--------------------------------------------------------|----
-|--------------|--------------------------------------------------------|----
 Solo rhythm  8x Solo, Stone                                                  

-|--------12----------------------12----------------------------------------|-
-|-15b17-----15-12-15-12-15-15b17----15-12-15h17p15-12h15p12----------------|-
-|-----------------------------------------------------------12h14p12----12\|-
-|--------------------------------------------------------------------14----|-
-|--------------------------------------------------------------------------|-
-|--------------------------------------------------------------------------|-
                                                                              

-|---------------------|-------------------------------------------15------|--
-|-x----12--14---------|----------------12h15p12-15-17p15p12-15/17----17---|--
-|-x----12--14-----12\-|-11/12p11-12/14------------------------------------|--
-|---14---------14-----|---------------------------------------------------|--
-|---------------------|---------------------------------------------------|--
-|---------------------|---------------------------------------------------|--
                                                                              

-|-15-----------|-17-15-12----12-15--17-15p12----12---|-----------------------
-|----17-15-17--|----------15-----------------15------|-----------------------
-|--------------|-------------------------------------|-----------------------
-|--------------|-------------------------------------|-----------------------
-|--------------|-------------------------------------|-----------------------
-|--------------|-------------------------------------|-----------------------
                                                                              

-|----15-17--17b19--17b19--17b19vvv\--|---------------------------------------
-|-17---------------------------------|---------------------------------------
-|------------------------------------|---------------------------------------
-|------------------------------------|---------------------------------------
-|------------------------------------|---------------------------------------
-|------------------------------------|---------------------------------------
                                                                              

-|------------------------------|---------------------|-----------------------
-|------------------------------|---------------------|-----------------------
-|-2--2--4-4--5--5-5-5-5-5-5-5--|-2--2--4-4--5--5-5---|-----------------------
-|-2--2--4-4--5--5-5-5-5-5-5-5--|-2--2--4-4--5--5-5---|-----------------------
-|-0--0--2-2--3--3-3-3-3-3-3-3--|-0--0--2-2--3--3-3---|-----------------------
-|------------------------------|---------------------|-----------------------
 Chorus, G1                   3x                                              

-|---------------------------|------|-----------------------------------------
-|---------------------------|------|-----------------------------------------
-|-14--14\-14--14--14\--14\--|-14---|-----------------------------------------
-|---------------------------|------|-----------------------------------------
-|---------------------------|------|-----------------------------------------
-|---------------------------|------|-----------------------------------------
 Chorus, G2                4x                                                 

-|------------------------------|----------------------------------|----------
-|------------------------------|----------------------------------|----------
-|-2--2--4-4--5--5-5-5-5-5-5-5--|-14--14--14--14--14--14--14--14---|----------
-|-2--2--4-4--5--5-5-5-5-5-5-5--|---14--14--14--14--14--14--14--14-|----------
-|-0--0--2-2--3--3-3-3-3-3-3-3--|----------------------------------|----------
-|------------------------------|----------------------------------|----------
 G1                           3x G2 (w/ slide)                 3.5x           

-|---------------------------------------|------------------------------------
-|---------------------------------------|------------------------------------
-|-2--2--4-4--5--5-5-0-5\3-3-3-3-3-3-3-3-|------------------------------------
-|-2--2--4-4--5--5-5-0-5\3-3-3-3-3-3-3-3-|------------------------------------
-|-0--0--2-2--3--3-3-0-3\1-1-1-1-1-1-1-1-|------------------------------------
-|---------------------------------------|------------------------------------
                                                                              

-|--------------------------------------------------|-------------------------
-|--------------------------------------------------|-------------------------
-|-5-5-5-5-5-5-5-5----------------------------------|-------------------------
-|-5-5-5-5-5-5-5-5-5-5-5-5-5-5-5-5-5-5-5-5-5-5-5-5--|-------------------------
-|-3-3-3-3-3-3-3-3-5-5-5-5-5-5-5-5-5-5-5-5-5-5-5-5--|-------------------------
-|-----------------5-5-5-5-5-5-5-5-5-5-5-5-5-5-5-5--|-------------------------
                                                                              

-|------------------------------------------------------------------|---------
-|------------------------------------------------------------------|---------
-|-3-3-3-3-3-3-3-3-5-5-5-5-5-5-5-5----------------------------------|---------
-|-3-3-3-3-3-3-3-3-5-5-5-5-5-5-5-5-5-5-5-5-5-5-5-5-5-5-5-5-5-5-5-5--|---------
-|-1-1-1-1-1-1-1-1-3-3-3-3-3-3-3-3-5-5-5-5-5-5-5-5-5-5-5-5-5-5-5-5--|---------
-|---------------------------------5-5-5-5-5-5-5-5-5-5-5-5-5-5-5-5--|---------
 Outro, G1, Play till end                                                     

-|-------------------------------------------|--------------------------------
-|-------------------------------------------|--------------------------------
-|-/12----12----12-------12-------12----12\--|--------------------------------
-|-----12----12----12-12----12-12----12------|--------------------------------
-|-------------------------------------------|--------------------------------
-|-------------------------------------------|--------------------------------
 Outro, G2 (w/ slide)                                                         

-|--------------------------------------|-------------------------------------
-|--------------------------------------|-------------------------------------
-|-/12-/17-\-12-12\--/12--12--12\--12\--|-------------------------------------
-|-/12-/17-\-12-12\--/12--12--12\--12\--|-------------------------------------
-|--------------------------------------|-------------------------------------
-|--------------------------------------|-------------------------------------
                                                                              

-|-------------------------|----|------15--15--/-x-\----------------|---------
-|-------------------------|----|------15--15--/-x-\-\--------------|---------
-|-17--\--12--/-/--15\-----|----|--------------------\-\------------|---------
-|-17--\--12--/-/--15\--\--|----|-17vv-----------------\------------|---------
-|----------------------\--|----|-----------------------------------|---------
-|-------------------------|----|-----------------------------------|---------
          grad. slide                           slide up to pickups           

-|-----------------------|----|-----------------------------|-----------------
-|-----------------------|----|-----------------------------|-----------------
-|-/12--12\---/12-vvvv-\-|----|-/12--\--12vv-\--/12-\--12\--|-----------------
-|-/12--12\---/12-vvvv-\-|----|-/12--\--12vv-\--/12-\--12\--|-----------------
-|-----------------------|----|-----------------------------|-----------------
-|-----------------------|----|-----------------------------|-----------------
                                                                              

-|-------------------------------------------------|------------|-------------
-|-4-3-4-3----6-5-6-5------------------------------|------------|-------------
-|----------------------5-4-5-4-5-4--4-5-4-5-4-----|--12-\------|-------------
-|-------------------------------------------------|--12-\-\----|-------------
-|-------------------------------------------------|-------\----|-------------
-|-------------------------------------------------|------------|-------------
 G3                                                 G2    fade out            

  development and support by
dmitry ivanov