rock
 
|tablatures   |lyrics   |discussion forums   |more tabs @ XGuitar.com

Pearl Jam tabs

Push Me Pull Me bass tab

PEARL JAM "PUSH ME PULL ME" -BASS TAB
---------------------------
Tune normal e a d g
Another dead easy song!  Simple but effective

Main riff:
|-----------------|     every 4th  |-----------------|
|-----------------|     time play  |-----------------|
|-----------5-7---|                |-----------5-7-5-|
|-0-0-3-5-0-----0-|                |-0-0-3-5-0-------|

Chorus:
|-----------------|-----------------|-----------------|
|-----------------|-----------------|-----------------|
|-----------------|-5-5-5-5-5-5-5-5-|-----------------| 
|-7-7-7-7-7-7-7-7-|-----------------|-5-5-5-5-5-5-5-5-|

Interlude: "like a cloud"
|-----------------------------|
|----14-------------------14\-|
|-------12h14p12h14p12--------|
|-12-------------------12-----|

 h = hammeron
 p = pulloff
 ~ = vibrato
 / = slide up
 \ = slide down
(X)= hold note (let ring)

Tabbed by Mark Linwood

Hint suggesstions or comments to (Rlinwood@powerup.com.au)
I will reply to all emails
  development and support by
dmitry ivanov