rock
 
|tablatures   |lyrics   |discussion forums   |more tabs @ XGuitar.com

Pearl Jam tabs

Present Tense bass tab

Present tense
Pearl Jam
Album:No code
Tabbed by: António Rodrigues

Bass comes in in the instrumental part

G------------------------------------------------------------------
D------------------------------------------------------------------
A------------------------------------------------------------------
E-3-3-3-3-3-3-3-3-3-3-3-3-3-3-3-3--6-6-6-6-6-6-6-6-6-6-6-6-6-6-6-6-

G------------------------------------------------------------------
D------------------------------------------------------------------
A------------------------------------------------------------------
E-5-5-5-5-5-5-5-5-5-5-5-5-5-5-5-5--3-3-3-3-3-3-3-3-3-3-3-3-3-3-3-3-

G-----------------------------3-------------------------------
D-5-5-5-5-5-5\----------3--3h4--5-3---3-------8----8-10\12/10-
A--------------------3h5------------5----9h10---10------------
E--------------3-3-3------------------------------------------

G-------------------------------------------------------12----12-12\-
D-------3h5-----3----------3---3-5/------------------------12--------
A-----------3-5---5----------5---------------------------------------
E-3-3-3--------------3-3-3----------3-3-3--3-3-3-3-3-3\--------------

G-------------12----12-----------------------------------------------
D----------------12----12\-----------9--------15----15---------------
A--------------------------------7h8----15-17----17----17-15---------
E-3-3-3-3-3-3--------------3-3-3-------------------------------------

G--------------------------------------------------------------------
D-10h12-12-12--12-12-12-12-12--12-x8 times---------------------------
A--------------------------------------------------------------------
E--------------------------------------------------------------------

G------------------------------------------------------------------------
D------------------------------------------------------------------------
A-5let ring--3let ring--2let ring---till the end-------------------------
E------------------------------------------------------------------------
  development and support by
dmitry ivanov