rock
 
|tablatures   |lyrics   |discussion forums   |more tabs @ XGuitar.com

Pearl Jam tabs

Porch bass tab

From: PePPeRs01@aol.com
Date: Sun, 9 Jul 1995 19:02:37 -0400
Subject: porch-by pearl jam basstab

Porch by Pearl Jam

This song is fairly easy to play. 
Jeff Ament plays it on a 5 string but its very to play on 4 string

The begining is all guitar then the bass slowly makes its way into the song. 

intro

   do each note 5 x's       
g----------------------------|------------------------
d----------------------------|------------------------
a----------------------------|------------------------
e---3--5--6--5--3--5--6-|------8----------------

Later on in the song the notes are the same but just played at different
times.

Verse
g-------------------------------------------
d--7-7-7-7-------------------------------
a-----------10-10-10-10--9--7-------
e-------------------------------------8----

This is a great song.  Its fast but EASY

from PePPeRs@aol.com
if u know any other Pearl Jam Bass tabs or u got some comments write me.
l8r
  development and support by
dmitry ivanov