rock
 
|tablatures   |lyrics   |discussion forums   |more tabs @ XGuitar.com

Pearl Jam tabs

Pilate guitar tab


* = w\Whammy Bar
(Last Updated-02/07/99)

-|----------------------------------|-----------------------------------------
-|----------------------------------|-----------------------------------------
-|--11-11-11\9--9--9--9--9\7--7--7*-|-----------------------------------------
-|--0--0--0--0--0--0--0--0-0--0--0--|-----------------------------------------
-|--9--9--9\-7--7--7--7--7\5--5--5--|-----------------------------------------
-|----------------------------------|-----------------------------------------
  Verse Stone                                                                 

-|-----------------------------------|----------------------------------------
-|--------------------------0--0-----|----------------------------------------
-|--11-11-11/12--12--12--12\7--7--7--|----------------------------------------
-|--0--0--0--0---0---0---0--0--0--0--|----------------------------------------
-|--9--9--9/-10--10--10--10\5--5--5--|----------------------------------------
-|-----------------------------------|----------------------------------------
                                                                              

-|--------------------------------|-----|-------------------------------------
-|--------------------------------|-----|-------------------------------------
-|--x--x--10--10--10--10\3--3--3--|-----|-------------------------------------
-|--x--x--0---0---0---0--0--0--0--|--0--|-------------------------------------
-|--x--x--8---8---8---8\-1--1--1--|-----|-------------------------------------
-|--------------------------------|-----|-------------------------------------
  Interlude Stone                   Mike                                      

-|-------------------------------|--------|---------------------------------|-
-|-------------------------------|--------|---------------------------------|-
-|--11-11-11\9--9--9--9\7--7--7--|--x--x--|--11-11-11/12--12--12--12/14--14-|-
-|--0--0--0--0--0--0--0-0--0--0--|--x--x--|--0--0--0--0---0---0---0--0---0--|-
-|--9--9--9\-7--7--7--7\5--5--5--|--x--x--|--9--9--9/-10--10--10--10/12--12-|-
-|-------------------------------|--------|---------------------------------|-
  Verse Stone                                                                 

-|----------------------|-----------------------------------------------------
-|----------------------|-----------------------------------------------------
-|--14--14--14--14--14--|-----------------------------------------------------
-|--0---0---0---0---0---|-----------------------------------------------------
-|--12--12--12--12--12--|-----------------------------------------------------
-|----------------------|-----------------------------------------------------
                                                                              

-|--3--3--3--3--|--------|-------------------------------------------|--------
-|--3--3--3--3--|--------|----13-x-x-x-x-x-13-13\--------------------|--------
-|--4--4--4--4--|--3--3--|-------------------------------------------|--------
-|--5--5--5--5--|--3--3--|-------------------------------------------|--------
-|--5--5--5--5--|--1--1--|-------------------------------------------|--------
-|--3--3--3--3--|--------|-------------------------------------------|--------
  Chorus Stone     Mike      2nd And 3rd Chorus This Fill Is Played           

-|-------------------------|----------|---------------------------------------
-|-------------------------|---5\3----|---------------------------------------
-|----x----7-7--7----7--7--|----------|---------------------------------------
-|-------------------------|----------|---------------------------------------
-|--5---5----5--5--5----5--|----------|---------------------------------------
-|-------------------------|----------|---------------------------------------
  Mike's Second Verse Fill    Gtr. 3                                          

-|---------|-----------------------------------------------|------------------
-|---------|-----------------------------------------------|------------------
-|--11--\--|--4--4--4--6--6--6--6--7--7--7--7--2--2--4--4--|------------------
-|--0------|--0--0--0--0--0--0--0--0--0--0--0--0--0--0--0--|------------------
-|--9---\--|--2--2--2--4--4--4--4--5--5--5--5--0--0--2--2--|------------------
-|---------|-----------------------------------------------|------------------
                                                                              

-|----------|------------------------------------------------|----------------
-|----------|------------------------------------------------|----------------
-|-------2--|--4--4--4--6--6--6--6--7--7--7--7--2--2--4--4---|----------------
-|--x-x--3--|--0--0--0--0--0--0--0--0--0--0--0--0--0--0--0---|----------------
-|--x-x--3--|--2--2--2--4--4--4--4--5--5--5--5--0--0--2--2---|----------------
-|--x-x--1--|------------------------------------------------|----------------
                                                                              

-|--------------------|----------------------------|--------------------------
-|--------------------|----------------------------|--------------------------
-|--2--2--4--4--6--6--|--2--2--4--4--6--6----7--7--|--------------------------
-|--0--0--0--0--0--0--|--0--0--0--0--0--0----0--0--|--------------------------
-|--0--0--2--2--4--4--|--0--0--2--2--4--4----5--5--|--------------------------
-|--------------------|----------------------------|--------------------------
       With Fill 1                                                            

-|------------------------------------------------------------------------|---
-|----3------3-----3-----------3----3------3------3---3--3----------------|---
-|-------------------0---5p4p0-----------------------------0--5--4--0--0--|---
-|--5---5--5----5------5---------5----5--5---5--5---5---------------------|---
-|------------------------------------------------------------------------|---
-|------------------------------------------------------------------------|---
   Fill 1                                                                     

-|-----------------------|-----------------------|----------------------------
-|-----------------------|-----------------------|----------------------------
-|--11-\---12--12--7--7--|-----2--2--4--4--6--6--|----------------------------
-|--0------0---0---0--0--|--0--0--0--0--0--0--0--|----------------------------
-|--9--\---10--10--5--5--|--0--0--0--2--2--4--4--|----------------------------
-|-----------------------|-----------------------|----------------------------
   Outro                                                                      

  development and support by
dmitry ivanov