rock
 
|tablatures   |lyrics   |discussion forums   |more tabs @ XGuitar.com

Pearl Jam tabs

Once bass tab

From: PePPeRs0o@aol.com
Date: Sun, 19 Nov 1995 13:42:06 -0500
Subject: btab:once by Pearl Jam

===================
Once
from the album Ten
by PePPeRs 0o@aol.com
===================

intro-     play this 3x's       then play this
-------||------------------5~~--|------------------------------
-------||*-----5-7---5-7------5|-------------------------------
---5--||*-(5)------3-------------|-1-1---1---1-1--1-0-0---
-------||--------------------------|------------------------------

 verse  repeated till "sixteen gauge"     
||--------------------------------||-------
||-----7---0--------------------||--------
||--------------3---3-3-3-5---||--------
||--3h5----------------------5-||------
   
    prechorus                
------------------------------------
-------------7---------------------
-----------------3---3-3-3-5----
----5---5----------------------5--

    chorus           
||-------------------------------------------------------
||-------------------------------------------------------
||-1-1---1---1-1-1-1-1----------------0---0-0-0--
||---------------------3-3----3-3-3-3----------------


|--------------------------|-------------------------------------|
|--------------------------|-------------------------------------|
|-1---1-1-3--3-3-3----|---------------/5---5-5-5-5---5\|
|-----------------------5-|---3---3-3-3----------------------|

chorus
------------------------------------------------|-------------------------
------------------------------------------------|-------------------------
-1-1-1-1-3-(3)-----8-----------0--0-0-0-|-1-1-1--3-3-3-3----
------------------0-1---3-3-3-3-------------|---------------------5-


-------------------------------------------|---------------------
-------------------------------------------|---------------------
----------5-5------------5-5-5-5-5-5-|-1-1--1--1-1-1---
3-3-3-3-----3-3-3-3------------------|------------------3-

--------------------------
--------------------------
-1-1-1--1-1-1-0------
--------------------------

Guitar Solo
   A5          G5           A5               G5                              
----------------------------|-------------------------------------||
----------------------------|-------------------------------------||
----------------------------|-------------------------------------||
-5-5-5--5---3--3-3-0--|--5---5-5-5p-3---0h3---3---0-||

interlude                   
--------------------------
-5-5-5-5-3------------
--------------5-4-3----
----------------------6--

lastline going into chorus
----------------------------12-12-12-----12-12----------
-------------------12-12--------------12----------12\----
-10-10-10-10--------------------------------------------
---------------------------------------------------------------
from PePPeRs 0o@aol.com
  development and support by
dmitry ivanov