rock
 
|tablatures   |lyrics   |discussion forums   |more tabs @ XGuitar.com

Pearl Jam tabs

Off He Goes guitar tab

Author/Artist: Pearl Jam 
Title: Off He Goes
Album: No Code
Transcribed by: Chris Wilson
Email: yokel@zip.com.au

There are more than two gtr. arrangments on this song, but 
i don't see the need to tab them out.
One Word : Improvise!

-|-----------|--------|-----0--|----------------|-----------0--|--0--------|--
-|-----------|--------|-----1--|----------------|-----------1--|----1---1--|--
-|-----------|--2--2--|--0--2--|----------------|--2--2--0--2--|------2----|--
-|------3-2--|--2--2--|--2-----|-----------3-2--|--2--2--2--2--|-----------|--
-|----3------|--------|--------|--x-x----3------|--------------|-----------|--
-|--1--------|--------|--------|--x-x--1--------|--------------|-----------|--
  Intro Stone                                                                 

-|--------------|-------|--------------------|--0------|--1--1--------|-------
-|-----------1--|--0----|--------------------|----1----|--1--1-----1--|-------
-|--2--2--0--0--|----1--|--2--2--0--0-0-0-0--|------0--|--2--2--0--0--|-------
-|--3--3--0--2--|-------|--3--3--0--3-2-2-2--|---------|--3--3--0--2--|-------
-|--3--3-----3--|-------|--3--3-----3-3-3-3--|---------|-----------3--|-------
-|--1--1--------|-------|--1--1--------------|---------|--------------|-------
                    With Fill 1                                               

-|------0------|--------------|------0------|--------|--------|------0------|-
-|--1-----1----|-----------1--|--1-----1----|--------|--------|--1-----1----|-
-|----0-----0--|--2--2--0--0--|----0-----0--|--0--0--|--2--2--|----2-----2--|-
-|-------------|--3--3--0--2--|-------------|--2--2--|--2--2--|-------------|-
-|-------------|--3--3-----3--|-------------|--------|--0--0--|-------------|-
-|-------------|--1--1--------|-------------|--------|--------|-------------|-
   Verse Stone                                               With Fill 1      

-|--1--1--------|--1--------|--1-----0--|------0------|-----------------------
-|--1--1-----1--|--1-----1--|--1--1--1--|--1-----1----|-----------------------
-|--2--2--0--0--|--2--0--0--|--2--0--2--|----2-----2--|-----------------------
-|--3--3--0--2--|--3--0--2--|--3--2--2--|-------------|-----------------------
-|-----------3--|--------3--|-----3--0--|-------------|-----------------------
-|--------------|-----------|-----------|-------------|-----------------------
                                                                              

-|--------------|------0------|--1--1-----------|------0------|---------------
-|-----------1--|--1-----1----|--1--1-----1-----|--1-----1----|---------------
-|--2--2--0--0--|----0-----0--|--2--2--0--0--0--|----0-----0--|---------------
-|--3--3--0--2--|-------------|--3--3--0--3--2--|-------------|---------------
-|--3--3-----3--|-------------|-----------3--3--|-------------|---------------
-|--1--1--------|-------------|-----------------|-------------|---------------
                                                                              

-|--------3-----|------1------|-----------------------------------------------
-|-----1--3-----|--------1----|-----------------------------------------------
-|--2--0--0--2--|--2-------2--|-----------------------------------------------
-|--3--2--0--3--|----3--------|-----------------------------------------------
-|--3--3--2--3--|-------------|-----------------------------------------------
-|--1-----3--1--|-------------|-----------------------------------------------
                                                                              

-|------------------0-----------0--|------------------------------0--|--------
-|------------------1--------x--1--|---------------------------x--1--|--------
-|------------------2--0--2--x--2--|---------------2--2--0--2--x--2--|--------
-|--3------------2--2--2--2--x--2--|----------3-2--2--2--2--2--x--2--|--------
-|--3-3-3-3-3-3--0-----------------|--x-x---3------0--0--0--0-----0--|--------
-|--1-1-1-1-1-1--------------------|--x-x-1--------------------------|--------
  Chorus Stone                                                                

-|----------------|--1--1--------|--1--------|--1--------|--0------|----------
-|----------------|--1--1-----1--|--1-----1--|--1-----1--|----1----|----------
-|----------------|--2--2--0--0--|--2--0--0--|--2--0--0--|------0--|----------
-|-----------3-2--|-*3--3--0--2--|--3--0--2--|--3--0--2--|---------|----------
-|--x-x----3------|-----------3--|--------3--|--------3--|---------|----------
-|--x-x--1--------|--------------|-----------|-----------|---------|----------
                                                                              

-|-----------|-------|--1--1--------|------0--------|-------------------------
-|--------1--|--1----|--1--1-----1--|--1-----1------|-------------------------
-|--2--0--0--|----0--|--2--2--0--0--|----0-----0----|-------------------------
-|--3--0--2--|-------|--3--3--0--2--|------------2--|-------------------------
-|--3-----3--|-------|-----------3--|---------------|-------------------------
-|--1--------|-------|--------------|---------------|-------------------------
                       With Fill 2                                            

-|------------------|---------------------------------------------------------
-|-------1----------|---------------------------------------------------------
-|-----2-------0----|---------------------------------------------------------
-|---3-------2---2--|---------------------------------------------------------
-|---------3--------|---------------------------------------------------------
-|------------------|---------------------------------------------------------
   *Gtr. 3     3x                                                             

-|-------------------|----0------|----------------------------------|---------
-|-------------------|------1----|----------------------------------|---------
-|-------------------|--0-----0--|--0----------------2-0------------|---------
-|--3-2-3-2-3-2-0-2--|-----------|--0--3-2-3-2-3-2-0-----0---0---2--|---------
-|--3-3-3-3-3-3-3-3--|-----------|-----3-3-3-3-3-3-3-------3---3----|---------
-|-------------------|-----------|----------------------------------|---------
  Interlude Stone                                                             

-|-------------------------|-------------------|--------------|---------------
-|-------------------------|-------------------|-----------1--|---------------
-|----------------2--------|--------2-0--------|--2--2--0--0--|---------------
-|--3-2-3-2-3-2-0---0---0--|--3-2-0-----0---0--|--3--3--0--2--|---------------
-|--3-3-3-3-3-3-3-----3----|--3-3---------3----|--3--3-----3--|---------------
-|-------------------------|-------------------|--1--1--------|---------------
                                                                              

-|------0------|--3-0------|--------------------------------------------------
-|--1-----1----|------3-1--|--------------------------------------------------
-|----0-----0--|-----------|--------------------------------------------------
-|-------------|-----------|--------------------------------------------------
-|-------------|-----------|--------------------------------------------------
-|-------------|-----------|--------------------------------------------------
                With Fill 3                                                   

-|--1--------|------0------|--1-1--------|--------0------|--1--1--------|-----
-|--1-----1--|--1-----1----|--1-1-----1--|--1-------1----|--1--1-----1--|-----
-|--2--0--0--|----0-----0--|--2-2--0--0--|----0-------0--|--2--2--0--0--|-----
-|--3--0--2--|-------------|--3-3--0--2--|------2--------|--3--3--0--2--|-----
-|--------3--|-------------|----------3--|---------------|-----------3--|-----
-|-----------|-------------|-------------|---------------|--------------|-----
   Verse Stone                                                                

-|--1-1--------|------------------0--------|--1-------------|-----------------
-|--1-1-----1--|--------------1-----1------|--1-----1--1----|-----------------
-|--2-2--0--0--|--2--2--0--2----2-----2----|--2--0--0----0--|-----------------
-|--3-3--0--2--|--3--3--0--2------------2--|--3--0--2-------|-----------------
-|----------3--|--3--3-----0---------------|--------3-------|-----------------
-|-------------|--1--1---------------------|----------------|-----------------
                            With Fill 4                    With Fill 5        

-|----------------------------|---------------------------------|-------------
-|----------------------x--1--|---------------------------x--1--|-------------
-|-----------2-2--0--2--x--2--|----------------2-2--0--2--x--2--|-------------
-|------3-2--2-2--2--2--x--2--|-----------3-2--2-2--2--2--x--2--|-------------
-|----3------0-0--0--0-----0--|--x-x----3------0-0--0--0-----0--|-------------
-|--1-------------------------|--x-x--1-------------------------|-------------
  Chorus Stone           With Fill 6                                          

-|----------------|---------------------|--------------0------|---------------
-|----------------|-----------1---------|-----------1----1----|---------------
-|----------------|--2--2--0--0----0----|--2--2--0--0------0--|---------------
-|-----------3-2--|--3--3--0--2--2---2--|--3--3--0--2---------|---------------
-|--x-x----3------|--3--3-----3---------|--3--3-----3---------|---------------
-|--x-x--1--------|-*1--1---------------|--1--1---------------|---------------
                                With Fill 7                                   

-|-----------------|--------------|-----------|------0------|-----------------
-|-----------1--1--|-----------1--|-----1--1--|--1-----1----|-----------------
-|--2--2--0--0--0--|--2--2--0--0--|--2--0--2--|----2-----2--|-----------------
-|--3--3--0--2--2--|--3--3--0--2--|--3--2--2--|-------------|-----------------
-|--3--3-----3--3--|--3--3-----3--|--3--3--0--|-------------|-----------------
-|--1--1-----------|--1--1--------|--1--------|-------------|-----------------
                     With Fill 8                                              

-|--1--------|------0------|-----------------|--------------------------------
-|--1-----1--|--1-----1----|------1----------|--------------------------------
-|--2--0--0--|----0-----0--|----2-------0----|--------------------------------
-|--3--0--2--|-------------|--3-------2---2--|--------------------------------
-|--------3--|-------------|--------3--------|--------------------------------
-|-----------|-------------|-----------------|--------------------------------
      With Fill 9           *Gtr.3      3x    With Fill 10                    

-|---------------------0------|----------------------------------|------------
-|-----------------------1----|----------------------------------|------------
-|-------------------0-----0--|--0----------------2-0------------|------------
-|--3-2-3-2-3-2-0-2-----------|--0--3-2-3-2-3-2-0-----0---0---2--|------------
-|--3-3-3-3-3-3-3-3-----------|-----3-3-3-3-3-3-3-------3---3----|------------
-|----------------------------|----------------------------------|------------
  Interlude Stone                                                             

-|---------------------------|-------------------|--1--1--------|-----0-----|-
-|---------------------------|-------------------|--1--1-----1--|--1----1---|-
-|----------------2-0--------|--------2-0--------|--2--2--0--0--|----0----0-|-
-|--3-2-3-2-3-2-0-----0---0--|--3-2-0-----0---0--|--3--3--0--2--|-----------|-
-|--3-3-3-3-3-3-3-------3----|--3-3---------3----|-----------3--|-----------|-
-|---------------------------|-------------------|--------------|-----------|-
   With Fill 11                                            With Fill 12       

-|--1--1------------0------|--1--1------------0------|--1--1--------|---------
-|--1--1-----1--1-----1----|--1--1-----1--1-----1----|--1--1-----1--|---------
-|--2--2--0--0----0-----0--|--2--2--0--0----0-----0--|--2--2--0--0--|---------
-|--3--3--0--2-------------|--3--3--0--2-------------|--3--3--0--2--|---------
-|-----------3-------------|-----------3-------------|-----------3--|---------
-|-------------------------|-------------------------|--------------|---------
   Verse Stone                                   With Fill 13                 

-|--1--1--------|--1--------|------0------|--3-0------|--------------|--------
-|--1--1-----1--|--1--1--1--|--1-----1----|------1----|-----------1--|--------
-|--2--2--0--0--|--2--0--2--|----2-----2--|--------0--|--2--2--0--0--|--------
-|--3--3--0--2--|--3--2--2--|-------------|-----------|--3--3--0--2--|--------
-|-----------3--|-----3--0--|-------------|-----------|--3--3-----3--|--------
-|--------------|-----------|-------------|-----------|--1--1--------|--------
                 With Fill 16                                                 

-|--------------|--------------|------0------|--1--1--------|--1--1--------|--
-|-----------1--|-----------1--|--1-----1----|--1--1-----1--|--1--1-----1--|--
-|--2--2--0--0--|--2--2--0--0--|----0-----0--|--2--2--0--0--|--2--2--0--0--|--
-|--3--3--0--2--|--3--3--0--2--|-------------|--3--3--0--2--|--3--3--0--2--|--
-|--3--3-----3--|--3--3-----3--|-------------|-----------3--|-----------3--|--
-|--1--1--------|--1--1--------|-------------|--------------|--------------|--
                                                                              

-|-------|--1-----0--|------0------|--3--3--3--|-------------------|----------
-|--1----|--1--1--1--|--1-----1----|--1--1--1--|-----------1-------|----------
-|----0--|--2--0--2--|----2-----2--|--2--2--2--|--2--2--0--0----0--|----------
-|-------|--3--2--2--|-------------|-----------|--3--3--0--2--2----|----------
-|-------|-----3-----|-------------|-----------|--3--3-----3-------|----------
-|-------|-----------|-------------|-----------|--1--1-------------|----------
            With Fill 14                                                      

-|--------------0----|-----------------|--------------|--1------------0-----|-
-|-----------1----1--|-----------1--1--|-----------1--|--1--1--1--1-----1---|-
-|--2--2--0--0-------|--2--2--0--0--0--|--2--2--0--0--|--2--0--2----2-----2-|-
-|--3--3--0--2-------|--3--3--0--2--2--|--3--3--0--2--|--3--2--2------------|-
-|--3--3-----3-------|--3--3-----3--3--|--3--3-----3--|-----3---------------|-
-|--1--1-------------|--1--1-----------|--1--1--------|---------------------|-
                                                          With Fill 15        

-|--------------|------------|--1--1--------|--1--1--------|--1--1--------|---
-|-----------1--|--1------1--|--1--1-----1--|--1--1-----1--|--1--1-----1--|---
-|--2--2--0--0--|----0--0----|--2--2--0--0--|--2--2--0--0--|--2--2--0--0--|---
-|--3--3--0--2--|------------|--3--3--0--2--|--3--3--0--2--|--3--3--0--2--|---
-|--3--3-----3--|------------|-----------3--|-----------3--|-----------3--|---
-|--1--1--------|------------|--------------|--------------|--------------|---
                                                                              

-|--------0------0------|--1--1--------|--1--1--------|--------0------|-------
-|-----1--1--1-----1----|--1--1-----1--|--1--1-----1--|--1-------1----|-------
-|--2--0--2----2-----2--|--2--2--0--0--|--2--2--0--0--|----0-------0--|-------
-|--3--2--2-------------|--3--3--0--2--|--3--3--0--2--|------2--------|-------
-|--3--3----------------|-----------3--|-----------3--|---------------|-------
-|--1-------------------|--------------|--------------|---------------|-------
                                                                              

-|--------------------0------|----------------------------------|-------------
-|----------------------1----|----------------------------------|-------------
-|------------------0-----0--|--0----------------2-0------------|-------------
-|--3-2-3-2-3-2-0-2----------|--0--3-2-3-2-3-2-0-----0---0---2--|-------------
-|--3-3-3-3-3-3-3-3----------|-----3-3-3-3-3-3-3-------3---3----|-------------
-|---------------------------|----------------------------------|-------------
  Outro Stone          With Fill 16                                           

-|--x--3-3-3-3-0------x-x-3-0------|--1--1--------|--0---0----|---------------
-|--x--1-1-1-1-1-1----x-x-1-1-1----|--1--1-----1--|----1---1--|---------------
-|-----------------0------------0--|--2--2--0--0--|-----------|---------------
-|---------------------------------|--3--3--0--2--|-----------|---------------
-|---------------------------------|-----------3--|-----------|---------------
-|---------------------------------|--------------|-----------|---------------
                                                                              

-|--1--1--------|--------------------0------|-------------------------------|-
-|--1--1-----1--|----------------------1----|-------------------------------|-
-|--2--2--0--0--|------------------0-----0--|--x-x----------------2-0-------|-
-|--3--3--0--2--|--3-2-3-2-3-2-0-2----------|--x-x--3-2-3-2-3-2-0-----0---0-|-
-|-----------3--|--3-3-3-3-3-3-3-3----------|--x-x----------------------3---|-
-|--------------|---------------------------|-------------------------------|-
                                                                              

-|-------|-----------|--------------|-----0------|--1--------|----------------
-|-------|-----------|-----------1--|--1----1----|--1-----1--|----------------
-|-------|-----------|--2--2--0--0--|----0----0--|--2--0--0--|----------------
-|----2--|--3-2-3-2--|--3--3--0--2--|------------|--3--0--2--|----------------
-|--3----|--3-3-3-3--|--3--3-----3--|------------|--------3--|----------------
-|-------|-----------|--1--1--------|------------|-----------|----------------
                                                                              

-|--1--1--------0---0------|--1--1--------|------0------|--------------|------
-|--1--1-----1----1---1----|--1--1-----1--|--1-----1----|-----------1--|------
-|--2--2--0--0----------0--|--2--2--0--0--|----0-----0--|--2--2--0--0--|------
-|--3--3--0--2-------------|--3--3--0--2--|-------------|--3--3--0--2--|------
-|-----------3-------------|-----------3--|-------------|--3--3-----3--|------
-|-------------------------|--------------|-------------|--1--1--------|------
                                                                              

-|---------|-------------|---12----|-------------------|--*12--|--------------
-|--12-13*-|-------------|---------|--x-13-x-12-12-10--|--*13--|--------------
-|---------|-------------|---------|-------------------|--*14--|--------------
-|---------|-------------|---------|-------------------|-------|--------------
-|---------|-------------|---------|-------------------|-------|--------------
-|---------|-------------|---------|-------------------|-------|--------------
   Fill 1  *w/whammy bar   Fill 2     Fill 3             Fill 4               

-|--8-8h10-8-----------------------|--7--8--5--7--8--7--5--3--0--|------------
-|-----------8h10p8\5--------------|-----------------------------|------------
-|---------------------7--5--2--0--|-----------------------------|------------
-|---------------------------------|-----------------------------|------------
-|---------------------------------|-----------------------------|------------
-|---------------------------------|-----------------------------|------------
      Fill 5                              Fill 6                              

-|----------|----------------12-----|--------------------|--12p0-------12--|--
-|----13----|--13h15-13-10-8----13*-|--13-13-13-13-x-13*-|-------13h15-----|--
-|----------|-----------------------|--------------------|-----------------|--
-|----------|-----------------------|--------------------|-----------------|--
-|----------|-----------------------|--------------------|-----------------|--
-|----------|-----------------------|--------------------|-----------------|--
    Fill 7           Fill 8             Fill 9              Fill 10           

-|--3h5p3-5/7/8-8/10/12-15--|--------12--10-8--8-7-5-7-5-3--|--------|--------
-|--------------------------|--13-15------------------------|--10p8--|--------
-|--------------------------|--14---------------------------|--------|--------
-|--------------------------|-------------------------------|--------|--------
-|--------------------------|-------------------------------|--------|--------
-|--------------------------|-------------------------------|--------|--------
   Fill 11                            Fill 12                 Fill 13         

-|--8h10-8-\5--3--|-------------12--------|--------|--------------------------
-|----------------|--13-12-10\8----10-10--|---13---|--------------------------
-|----------------|-----------------------|--------|--------------------------
-|----------------|-----------------------|--------|--------------------------
-|----------------|-----------------------|--------|--------------------------
-|----------------|-----------------------|--------|--------------------------
    Fill 14          Fill 15                Fill 16     That's All Folks!     

  development and support by
dmitry ivanov