rock
 
|tablatures   |lyrics   |discussion forums   |more tabs @ XGuitar.com

Pearl Jam tabs

Oceans bass tab

Oceans
by
Pearl Jam
from PePPeRs o0@aol.com
real name  scott b


Verse  D                                                                  
-||-----7--------7--7h9--7--|--6--------|---------------|-----------------
-||-------------------------|-----6--7--|--9--9/7-----7\|-----------------
-||-------------------------|-----------|---------------|-----------------
-||-------------------------|-----------|---------------|-----------------
                                                                          

              C    pre chorusC5                                           
---------------||---------5---5--------------5--5--------|----------------
4-----6--6h0---||----------------------------------------|----------------
---------------||---3--3---------3-----3--3--------3--3--|----------------
---------------||----------------------------------------|----------------
                                                                          

                                       Chorus D6                          
--------------------------------------------------------------------------
--------------------------------------------------------------------------
----------------------------------------5--5---5--5-----5--5--5--5--5-----
--------------------------------------------------------------------------


      D                                                                   
---|---------------------------------------||-----------------------------
---|---------------------------------------||-----------------------------
5--|---5--5--5--5-----3--3--3--3--3--3--3--||-----------------------------
---|---------------------------------------||-----------------------------
  development and support by
dmitry ivanov