rock
 
|tablatures   |lyrics   |discussion forums   |more tabs @ XGuitar.com

Pearl Jam tabs

Nothing As It Seems bass tab

Nothing As It Seems 
Pearl Jam
Tabbed by Matt Marchain (DirectR3@aol.com)

  Main riff
G|-------------------------------------------------------------|
D|-------------------------------------------------------------|
A|-------------------------------------------------------------|
E|--7--7--7-7-7-7--6--6--6-6-6-6--7--7--7-7-7-7--7--7--7-7-7-7-|

  Bridge
G|-------------------------------------------------------------|
D|-------------------------------------------------------------|
A|-5--5--5--5-5-5-5-5------------------------------------------|
E|-----------------------5--5--5-5-5-5-5-5----7--7--7-7-7-7-7-7|

during solos play main riff

G|--------------------------------------------------------------------
D|--------------------------------------------------------------------
A|--------------------------------------------------------------------
E|-7-7-7-7-7-7-7-7-7-7-7-6-6-6-6-6-6-6-6-6-6-6-6-6-5-5-5-5-5-5-5-5-5-5

          --------------------------------|
          --------------------------------|
          --------------------------------|
          -6-6-6-6-6-6-6-6-6-6-6-6-6-6-6--|
        
Interlude
G|-----------------------------------------------|
D|-----------------------------------------------|
A|--11-11-11-11-10-10-10-10-9-9-9-9-7-7-7-7-7----|
E|------------------------------------back-to-7--|

That should get you through the song.
  development and support by
dmitry ivanov