rock
 
|tablatures   |lyrics   |discussion forums   |more tabs @ XGuitar.com

Pearl Jam tabs

MFC bass tab

PEARL JAM "MFC" -BASS TAB
---------------
Tune normal e a d g
This is a dead easy song!  Simple but effective
Intro:
|-----------------|---------------|
|*---------------*|---------------|
|*---------------*|---------------|
|-3-3-3-3-3-3-3-3-|-1-1-1-1-1-1-1-| 

Main riff:
|-----------------|-----------------|
|-----------------|-----------------|
|-----------------|-5-5-5-5-3-------| 
|-1-1-1-1-1-1-1-1-|-----------5-3-1-| This is repeated throughout
					the verse

Chorus:
|-----------------|-----------------|
|-----------------|-----------------|
|---------1-1-1-1-|---------1-1-1-1-| 
|-1-1-1-1---------|-1-1-1-1---------|

|-----------------|-----------------|
|-----------------|-----------------|
|---------1-1-1-1-|---------1-1-1-1-| 
|-1-1-1-1---------|-1-1-1-1---------|

|-----------------|-----------------|
|-----------------|-----------------|
|-1-1-1-1-1-1-1-1-|-----------------| 
|-----------------|-3-3-3-3-3-3-3-3-|

On final chorus the g is held and the last note played in F
|---|
|---|
|---| 
|-1-|

 h = hammeron
 p = pulloff
 ~ = vibrato
 / = slide up
 \ = slide down
(X)= hold note (let ring)

Tabbed by Mark Linwood

Hint suggesstions or comments to (Rlinwood@powerup.com.au)
I will reply to all emails
  development and support by
dmitry ivanov