rock
 
|tablatures   |lyrics   |discussion forums   |more tabs @ XGuitar.com

Pearl Jam tabs

Low Light guitar tab

Author/Artist: Pearl Jam
Title: Lowlight
Album: Yield
Transcribed by: Chris Wilson and Evan Cowan (Solo)
Email: yokel@zip.com.au and ecowan@uclink4.berkeley.edu

-|--------------|--3-3-3-3-3-3-3-3--|--------------|--3-3-3-3-3-3-3-3--|------
-|--3--3--------|--3-3-3-3-3-3-3-3--|--3--3--------|--3-3-3-3-3-3-3-3--|------
-|--0--0--0--0--|--0-0-0-0-0-0-0-0--|--0--0--0--0--|--0-0-0-0-0-0-0-0--|------
-|--2--0--0--0--|--0-0-0-0-0-0-0-0--|--0--0--0--0--|--0-0-0-0-0-0-0-0--|------
-|--3--2--2--0--|--2-2-2-2-2-2-2-2--|--3--2--2--0--|--2-2-2-2-2-2-2-2--|------
-|--------3--2--|--3-3-3-3-3-3-3-3--|--------3--2--|--3-3-3-3-3-3-3-3--|------
  Intro Stone                                                                 

-|-----------------|-----------------------|-----3-----|----------------------
-|--3--3--3--------|-----------------------|-----3-----|----------------------
-|--0--0--0--0--0--|-----------------------|-----0-----|----------------------
-|--2--2--0--0--0--|-----------------------|-----0-----|----------------------
-|--3--3--2--2--0--|-----------------------|-----2-----|----------------------
-|-----------3--2--|-----------------------|-----3-----|----------------------
                                             Mike's Intro and Verse Fill      

-|--0-0-0-0-0-0-0-0-3-3-3-3--|--------------|--3-3-3-3-3-3-3-3--|-------------
-|--0-0-0-0-1-1-1-1-3-3-3-3--|--3--3--------|--3-3-3-3-3-3-3-3--|-------------
-|--0-0-0-0-0-0-0-0-0-0-0-0--|--0--0-----0--|--0-0-0-0-0-0-0-0--|-------------
-|--2-2-2-2-2-2-2-2-0-0-0-0--|--2--0--0--0--|--0-0-0-0-0-0-0-0--|-------------
-|--2-2-2-2-3-3-3-3-2-2-2-2--|--3--2--0--2--|--2-2-2-2-2-2-2-2--|-------------
-|--0-0-0-0-3-3-3-3-3-3-3-3--|--------2--3--|--3-3-3-3-3-3-3-3--|-------------
  Verse Stone                                                                 

-|--------------|--3-3-3-3-3-3-3-3--|--0-0-0-0-1-1-1-1-3-3-3-3--|-------------
-|--3--3--------|--3-3-3-3-3-3-3-3--|--0-0-0-0-1-1-1-1-3-3-3-3--|-------------
-|--0--0-----0--|--0-0-0-0-0-0-0-0--|--0-0-0-0-0-0-0-0-0-0-0-0--|-------------
-|--2--0-----0--|--0-0-0-0-0-0-0-0--|--2-2-2-2-2-2-2-2-0-0-0-0--|-------------
-|--3--2--0--2--|--2-2-2-2-2-2-2-2--|--2-2-2-2-3-3-3-3-2-2-2-2--|-------------
-|--------2--3--|--3-3-3-3-3-3-3-3--|--0-0-0-0-3-3-3-3-3-3-3-3--|-------------
                                                                              

-|--2-2-2-2--0-0-0-0--|--0-0-0-0--3-3-3-3--|--2-2-2-2--0-0-0-0--|-------------
-|--3-3-3-3--0-0-0-0--|--1-1-1-1--3-3-3-3--|--3-3-3-3--0-0-0-0--|-------------
-|--2-2-2-2--0-0-0-0--|--0-0-0-0--0-0-0-0--|--2-2-2-2--0-0-0-0--|-------------
-|--0-0-0-0--2-2-2-2--|--2-2-2-2--0-0-0-0--|--0-0-0-0--2-2-2-2--|-------------
-|-----------2-2-2-2--|--3-3-3-3--2-2-2-2--|-----------2-2-2-2--|-------------
-|-----------0-0-0-0--|--3-3-3-3--3-3-3-3--|-----------0-0-0-0--|-------------
  Chorus Stone                                                                

-|--3-3-3-3--3-3-3-3--3-3-3-3--3-3-3-3--3-3-3-3--3-3-3-3--2-2-2-2--|----------
-|--3-3-3-3--3-3-3-3--3-3-3-3--3-3-3-3--3-3-3-3--3-3-3-3--3-3-3-3--|----------
-|--0-0-0-0--0-0-0-0--0-0-0-0--0-0-0-0--0-0-0-0--0-0-0-0--2-2-2-2--|----------
-|--2-2-2-2--0-0-0-0--2-2-2-2--0-0-0-0--2-2-2-2--0-0-0-0--0-0-0-0--|----------
-|--3-3-3-3--2-2-2-2--0-0-0-0--2-2-2-2--3-3-3-3--2-2-2-2-----------|----------
-|-----------------------------------------------------------------|----------
   Post-Chorus Stone                                                          

-|-------------------------------------------|--------------------------------
-|-------------------------------------------|--------------------------------
-|------0-----0-----0-----0-----0-----0---2--|--------------------------------
-|----2-----0-----2-----0-----2-----0-----0--|--------------------------------
-|--3-----2-----0-----2-----3-----2-------0--|--------------------------------
-|-------------------------------------------|--------------------------------
   Mike                                                                       

-|----------------|--3-3-3-3-3-3-3-3--|--------------|--3-3-3-3-3-3-3-3--|----
-|--3-3--3--------|--3-3-3-3-3-3-3-3--|--3--3--------|--3-3-3-3-3-3-3-3--|----
-|--0-0--0--0--0--|--0-0-0-0-0-0-0-0--|--0--0-----0--|--0-0-0-0-0-0-0-0--|----
-|--2-0--0--0--0--|--0-0-0-0-0-0-0-0--|--2--0-----0--|--0-0-0-0-0-0-0-0--|----
-|--3-3--2--2--0--|--2-2-2-2-2-2-2-2--|--3--2--0--2--|--2-2-2-2-2-2-2-2--|----
-|----------3--2--|--3-3-3-3-3-3-3-3--|--------2--3--|--3-3-3-3-3-3-3-3--|----
                                                                              

-|--0-0-0-0--0-0-0-0--0-0-0-0--|--------------|--3-3-3-3-3-3-3-3--|-----------
-|--0-0-0-0--1-1-1-1--3-3-3-3--|--3--3--------|--3-3-3-3-3-3-3-3--|-----------
-|--0-0-0-0--0-0-0-0--0-0-0-0--|--0--0--0--0--|--0-0-0-0-0-0-0-0--|-----------
-|--2-2-2-2--2-2-2-2--0-0-0-0--|--2--0--0--0--|--0-0-0-0-0-0-0-0--|-----------
-|--2-2-2-2--3-3-3-3--2-2-2-2--|--3--2--2--0--|--2-2-2-2-2-2-2-2--|-----------
-|--0-0-0-0--3-3-3-3--3-3-3-3--|--------3--2--|--3-3-3-3-3-3-3-3--|-----------
                                                With Fills                    

-|--------------|--3-3-3-3-3-3-3-3--|--------------|-0-0-0-0-0-0-0-0-3-3-3-3|-
-|--3--3--------|--3-3-3-3-3-3-3-3--|--3--3--3-----|-0-0-0-0-1-1-1-1-3-3-3-3|-
-|--0--0-----0--|--0-0-0-0-0-0-0-0--|--0--0--0--0--|-0-0-0-0-0-0-0-0-0-0-0-0|-
-|--2--0-----0--|--0-0-0-0-0-0-0-0--|--2--2--0--0--|-2-2-2-2-2-2-2-2-0-0-0-0|-
-|--3--2--0--2--|--2-2-2-2-2-2-2-2--|--3--3--2--2--|-2-2-2-2-3-3-3-3-2-2-2-2|-
-|--------2--3--|--3-3-3-3-3-3-3-3--|-----------3--|-0-0-0-0-3-3-3-3-3-3-3-3|-
                                                                              

-|--3--2--0--2--3--3--2--0--|-------------------------------------------------
-|--3--3-----3--3--3--3--3--|-------------------------------------------------
-|--------------------------|-------------------------------------------------
-|--------------------------|-------------------------------------------------
-|--------------------------|-------------------------------------------------
-|--------------------------|-------------------------------------------------
  Fills by Mikey                                                              

-|--2-2-2-2--0-0-0-0--|--0-0-0-0--3-3-3-3--|--2-2-2-2--0-0-0-0--|-------------
-|--3-3-3-3--0-0-0-0--|--1-1-1-1--3-3-3-3--|--3-3-3-3--0-0-0-0--|-------------
-|--2-2-2-2--0-0-0-0--|--0-0-0-0--0-0-0-0--|--2-2-2-2--0-0-0-0--|-------------
-|--0-0-0-0--2-2-2-2--|--2-2-2-2--0-0-0-0--|--0-0-0-0--2-2-2-2--|-------------
-|-----------2-2-2-2--|--3-3-3-3--2-2-2-2--|-----------2-2-2-2--|-------------
-|-----------0-0-0-0--|--3-3-3-3--3-3-3-3--|-----------0-0-0-0--|-------------
   Chorus Stone                                                               

-|--2--2----2--2---0-0----0-0--|--0--0----0--0---3--3---3--3--|---------------
-|--3--3----3--3---0-0----0-0--|--1--1----1--1---3--3---3--3--|---------------
-|--2--2----2--2---0-0----0-0--|--0--0----0--0---0--0---0--0--|---------------
-|--0--0----0--0---2-2----2-2--|--2--2----2--2---0--0---0--0--|---------------
-|-----------------2-2----2-2--|--3--3----3--3---2--2---2--2--|---------------
-|-----------------0-0----0-0--|--3--3----3--3---3--3---3--3--|---------------
  Keyboard arrang. for Guitar                                                 

-|--3--3-3-3--2--0--2--3-3-3--|-----------------------------------------------
-|--3--3-3-3--3--3--3--3-3-3--|-----------------------------------------------
-|--2--2-2-2--2--2--2--2-2-2--|-----------------------------------------------
-|--0--0-0-0--0--0--0--0-0-0--|-----------------------------------------------
-|----------------------------|-----------------------------------------------
-|----------------------------|-----------------------------------------------
                                                                              

-|--3-3-3-3--3-3-3-3--3-3-3-3--3-3-3-3--3-3-3-3--3-3-3-3--2-2-2-2--|----------
-|--3-3-3-3--3-3-3-3--3-3-3-3--3-3-3-3--3-3-3-3--3-3-3-3--3-3-3-3--|----------
-|--0-0-0-0--0-0-0-0--0-0-0-0--0-0-0-0--0-0-0-0--0-0-0-0--2-2-2-2--|----------
-|--2-2-2-2--0-0-0-0--2-2-2-2--0-0-0-0--2-2-2-2--0-0-0-0--0-0-0-0--|----------
-|--3-3-3-3--2-2-2-2--0-0-0-0--2-2-2-2--3-3-3-3--2-2-2-2-----------|----------
-|-----------------------------------------------------------------|----------
   Post-Chorus Stone                                                          

-|-------------------------------------------|--------------------------------
-|-------------------------------------------|--------------------------------
-|------0-----0-----0-----0-----0-----0---2--|--------------------------------
-|----2-----0-----2-----0-----2-----0-----0--|--------------------------------
-|--3-----2-----0-----2-----3-----2-------0--|--------------------------------
-|-------------------------------------------|--------------------------------
   Mike                                                                       

-|--------------|--3-3-3-3-3-3-3-3--|----------------|--3-3-3-3-3-3-3-3--|----
-|--3--3--------|--3-3-3-3-3-3-3-3--|--3-3--3--------|--3-3-3-3-3-3-3-3--|----
-|--0--0--0--0--|--0-0-0-0-0-0-0-0--|--0-0--0--0--0--|--0-0-0-0-0-0-0-0--|----
-|--2--0--0--0--|--0-0-0-0-0-0-0-0--|--2-2--0--0--0--|--0-0-0-0-0-0-0-0--|----
-|--3--2--2--0--|--2-2-2-2-2-2-2-2--|--3-3--2--2--0--|--2-2-2-2-2-2-2-2--|----
-|--------3--2--|--3-3-3-3-3-3-3-3--|----------3--2--|--3-3-3-3-3-3-3-3--|----
  Rhythm Behind Solo Stone                                                    

-|--------------|--0-0-0-0--0-0-0-0--3-3-3-3--|--------------|----------------
-|--3--3--------|--0-0-0-0--1-1-1-1--3-3-3-3--|--3--3--------|----------------
-|--0--0--0--0--|--0-0-0-0--0-0-0-0--0-0-0-0--|--0--0-----0--|----------------
-|--2--0--0--0--|--2-2-2-2--2-2-2-2--0-0-0-0--|--2--0-----0--|----------------
-|--3--2--2--0--|--2-2-2-2--3-3-3-3--2-2-2-2--|--3--2--0--2--|----------------
-|--------3--2--|--0-0-0-0--3-3-3-3--3-3-3-3--|--------2--3--|----------------
                                                                              

-|-----------------------------------------------------------------|----------
-|------------------------5-3---------------------------5-7-7-7-8--|----------
-|--4h5p4---------4h5p4--------4-4h5p4-------4h5p4-----------------|----------
-|--------5---5-5-------5--------------5-----------5---------------|----------
-|----------5----------------------------5-5---------5-------------|----------
-|-----------------------------------------------------------------|----------
   Solo Mike                                                                  

-|--------------------------|-------------------------------------------------
-|--8p7p5------5------------|-------------------------------------------------
-|---------7-7---7----------|-------------------------------------------------
-|-----------------4-5-4----|-------------------------------------------------
-|-----------------------5--|-------------------------------------------------
-|--------------------------|-------------------------------------------------
                                                                              

-|--0---------0---------3-------|--------------3--3--3-------------|----------
-|--0--0------1--1------3-------|--3--3--------3--3--3--3--3-------|----------
-|--0----0----0----0----0-------|--0--0-----0--0--0--0--0--0-------|----------
-|--2------2--2------2--0-------|--2--0-----0-------------------0--|----------
-|--2---------3---------2--2----|--3--2--0--2-----------------0----|----------
-|--0---------3---------3----3--|--------2--3----------------------|----------
   Piano arrang. for guitar                                                   

-|-----------|--0--0--3--|----------------------------------------------------
-|--3--3-----|--0--1--3--|----------------------------------------------------
-|--0--0-----|--0--0--0--|----------------------------------------------------
-|--2--0--0--|--2--2--0--|----------------------------------------------------
-|-*3--2--2--|--2--3--2--|----------------------------------------------------
-|--------3--|--0--3--3--|----------------------------------------------------
                                                                              

-|-----------|--0-0-0-0--0-0-0-0--3-3-3-3--|----------------------------------
-|--3--------|--0-0-0-0--1-1-1-1--3-3-3-3--|----------------------------------
-|--0--0-----|--0-0-0-0--0-0-0-0--0-0-0-0--|----------------------------------
-|--2--0--0--|--2-2-2-2--2-2-2-2--0-0-0-0--|----------------------------------
-|--3--2--2--|--2-2-2-2--3-3-3-3--2-2-2-2--|----------------------------------
-|--------3--|--0-0-0-0--3-3-3-3--3-3-3-3--|----------------------------------
   *Stone                                                                     

-|--2-2-2-2--0-0-0-0--|--0-0-0-0--3-3-3-3--|--2-2-2-2--0-0-0-0--|-------------
-|--3-3-3-3--0-0-0-0--|--1-1-1-1--3-3-3-3--|--3-3-3-3--0-0-0-0--|-------------
-|--2-2-2-2--0-0-0-0--|--0-0-0-0--0-0-0-0--|--2-2-2-2--0-0-0-0--|-------------
-|--0-0-0-0--2-2-2-2--|--2-2-2-2--0-0-0-0--|--0-0-0-0--2-2-2-2--|-------------
-|-----------2-2-2-2--|--3-3-3-3--2-2-2-2--|-----------2-2-2-2--|-------------
-|-----------0-0-0-0--|--3-3-3-3--3-3-3-3--|-----------0-0-0-0--|-------------
  Chorus Stone                                                                

-|--0-0-0-0--3-3-3-3--|--2-2-2-2--0-0-0-0--|----------------------------------
-|--1-1-1-1--3-3-3-3--|--3-3-3-3--0-0-0-0--|----------------------------------
-|--0-0-0-0--0-0-0-0--|--2-2-2-2--0-0-0-0--|----------------------------------
-|--2-2-2-2--0-0-0-0--|--0-0-0-0--2-2-2-2--|----------------------------------
-|--3-3-3-3--2-2-2-2--|-----------2-2-2-2--|----------------------------------
-|--3-3-3-3--3-3-3-3--|-----------0-0-0-0--|----------------------------------
                                                                              

-|--2--2---2--2---0-0---0-0--|--0--0---0--0---3--3---3--3--|------------------
-|--3--3---3--3---0-0---0-0--|--1--1---1--1---3--3---3--3--|------------------
-|--2--2---2--2---0-0---0-0--|--0--0---0--0---0--0---0--0--|------------------
-|--0--0---0--0---2-2---2-2--|--2--2---2--2---0--0---0--0--|------------------
-|----------------2-2---2-2--|--3--3---3--3---2--2---2--2--|------------------
-|----------------0-0---0-0--|--3--3---3--3---3--3---3--3--|------------------
  Keyboard arrang. for Guitar                                                 

-|--2--3-3-3--2--0--2--3-3-3--2--0--|--0-0--0-0---3-3--3-3--|-----------------
-|--3--3-3-3--3--3--3--3-3-3--3--3--|--1-1--1-1---3-3--3-3--|-----------------
-|--2--2-2-2--2--2--2--2-2-2--2--2--|--0-0--0-0---0-0--0-0--|-----------------
-|--0--0-0-0--0--0--0--0-0-0--0--0--|--2-2--2-2---0-0--0-0--|-----------------
-|----------------------------------|--3-3--3-3---2-2--2-2--|-----------------
-|----------------------------------|--3-3--3-3---3-3--3-3--|-----------------
                                                                              

-|--2--2---2--2---0-0---0-0--|------------------------------------------------
-|--3--3---3--3---0-0---0-0--|------------------------------------------------
-|--2--2---2--2---0-0---0-0--|------------------------------------------------
-|--0--0---0--0---2-2---2-2--|------------------------------------------------
-|----------------2-2---2-2--|------------------------------------------------
-|----------------0-0---0-0--|------------------------------------------------
                                                                              

-|--2---2--0---0--|--0---0---3---3-----------------|---2---2--0---0--|--------
-|--3---3--0---0--|--1---1---3---3-----------------|---3---3--0---0--|--------
-|--2---2--0---0--|--0---0---0---0--0-0---0--------|---2---2--0---0--|--------
-|--0---0--2---2--|--2---2---0---0------0---0------|---0---0--2---2--|--------
-|---------2---2--|--3---3---2---2------------2----|----------2---2--|--------
-|---------0---0--|--3---3---3---3--------------3--|----------0---0--|--------
   Piano arrang. for Guitar                                                   

-|--0--0---3--3--|--2--2--0-0---0-0--|----------------------------------------
-|--1--1---3--3--|--3--3--0-0---0-0--|----------------------------------------
-|--0--0---0--0--|--2--2--0-0---0-0--|----------------------------------------
-|--2--2---0--0--|--0--0--2-2---2-2--|----------------------------------------
-|--3--3---2--2--|--------2-2---2-2--|----------------------------------------
-|--3--3---3--3--|--------0-0---0-0--|----------------------------------------
                                                                              

-|--3-3-3-3--3-3-3-3--3-3-3-3--3-3-3-3--3-3-3-3--3-3-3-3--3-3-3-3--3-3-3-3-|--
-|--3-3-3-3--3-3-3-3--3-3-3-3--3-3-3-3--3-3-3-3--3-3-3-3--3-3-3-3--3-3-3-3-|--
-|--0-0-0-0--0-0-0-0--0-0-0-0--0-0-0-0--0-0-0-0--0-0-0-0--0-0-0-0--0-0-0-0-|--
-|--2-2-2-2--0-0-0-0--2-2-2-2--0-0-0-0--2-2-2-2--0-0-0-0--2-2-2-2--0-0-0-0-|--
-|--3-3-3-3--2-2-2-2--0-0-0-0--2-2-2-2--3-3-3-3--2-2-2-2--0-0-0-0--2-2-2-2-|--
-|-------------------------------------------------------------------------|--
   Post-Chorus Stone                                                          

-|--3-3-3-3--3-3-3-3--2-2-2-2-|-2-2-2-2-2-2-2-2-2-|---------------------------
-|--3-3-3-3--3-3-3-3--3-3-3-3-|-3-3-3-3-3-3-3-3-3-|---------------------------
-|--0-0-0-0--0-0-0-0--2-2-2-2-|-2-2-2-2-2-2-2-2-2-|---------------------------
-|--2-2-2-2--0-0-0-0--0-0-0-0-|-0-0-0-0-0-0-0-0-0-|---------------------------
-|--3-3-3-3--2-2-2-2----------|-------------------|---------------------------
-|----------------------------|-------------------|---------------------------
                                                                              

-|-------------------------------------------------------------------|--------
-|-------------------------------------------------------------------|--------
-|------0-----0-----0-----0-----0-----0-----0-----0-----0-----0---2--|--------
-|----2-----0-----2-----0-----2-----0-----2-----0-----2-----0-----0--|--------
-|--3-----2-----0-----2-----3-----2-----0-----2-----3-----2-------0--|--------
-|-------------------------------------------------------------------|--------
   Mike                                                          let ring     

-|--2----2-2-2-2-2-2--|-------------------------------------------------------
-|--3----3-3-3-3-3-3--|-------------------------------------------------------
-|--1/2--2-2-2-2-2-2--|-------------------------------------------------------
-|--0----0-0-0-0-0-0--|-------------------------------------------------------
-|--------------------|-------------------------------------------------------
-|--------------------|-------------------------------------------------------
   Outro Stone repeat until fade                                              

-|--2--3-3-3--2--0--|---------------------------------------------------------
-|--3--3-3-3--3--3--|---------------------------------------------------------
-|--2--2-2-2--2--2--|---------------------------------------------------------
-|--0--0-0-0--0--0--|---------------------------------------------------------
-|------------------|---------------------------------------------------------
-|------------------|---------------------------------------------------------
   Keyboard arrang. for guitar repeat until fade.....                         

  development and support by
dmitry ivanov